  0
SECTION
  2
HEADER
  9
$ACADVER
  1
AC1006
  9
$INSBASE
 10
0.0
 20
0.0
  9
$EXTMIN
 10
-150
 20
-150
  9
$EXTMAX
 10
150
 20
150
  9
$LIMMIN
 10
0.0
 20
0.0
  9
$LIMMAX
 10
300.0
 20
225.0
  9
$VIEWCTR
 10
7.378144
 20
4.5
  9
$VIEWSIZE
 40
9.0
  9
$SNAPMODE
 70
0
  9
$SNAPUNIT
 10
1.0
 20
1.0
  9
$SNAPBASE
 10
0.0
 20
0.0
  9
$SNAPANG
 50
0.0
  9
$SNAPSTYLE
 70
     0
  9
$SNAPISOPAIR
 70
     0
  9
$GRIDMODE
 70
     0
  9
$GRIDUNIT
 10
0.0
 20
0.0
  9
$ORTHOMODE
 70
     0
  9
$REGENMODE
 70
     1
  9
$FILLMODE
 70
     1
  9
$QTEXTMODE
 70
     0
  9
$DRAGMODE
 70
     2
  9
$LTSCALE
 40
1.0
  9
$OSMODE
 70
     0
  9
$ATTMODE
 70
     1
  9
$TEXTSIZE
 40
0.2
  9
$TRACEWID
 40
0.05
  9
$TEXTSTYLE
  7
STANDARD
  9
$CLAYER
  8
0
  9
$CELTYPE
  6
BYLAYER
  9
$CECOLOR
 62
   256
  9
$DIMSCALE
 40
1.0
  9
$DIMASZ
 40
0.18
  9
$DIMEXO
 40
0.0625
  9
$DIMDLI
 40
0.38
  9
$DIMRND
 40
0.0
  9
$DIMDLE
 40
0.0
  9
$DIMEXE
 40
0.18
  9
$DIMTP
 40
0.0
  9
$DIMTM
 40
0.0
  9
$DIMTXT
 40
0.18
  9
$DIMCEN
 40
0.09
  9
$DIMTSZ
 40
0.0
  9
$DIMTOL
 70
     0
  9
$DIMLIM
 70
     0
  9
$DIMTIH
 70
     1
  9
$DIMTOH
 70
     1
  9
$DIMSE1
 70
     0
  9
$DIMSE2
 70
     0
  9
$DIMTAD
 70
     0
  9
$DIMZIN
 70
     0
  9
$DIMBLK
  1

  9
$DIMASO
 70
     1
  9
$DIMSHO
 70
     0
  9
$DIMPOST
  1

  9
$DIMAPOST
  1

  9
$DIMALT
 70
     0
  9
$DIMALTD
 70
     2
  9
$DIMALTF
 40
25.4
  9
$DIMLFAC
 40
1.0
  9
$LUNITS
 70
     2
  9
$LUPREC
 70
     4
  9
$AXISMODE
 70
     0
  9
$AXISUNIT
 10
0.0
 20
0.0
  9
$SKETCHINC
 40
0.1
  9
$FILLETRAD
 40
0.0
  9
$AUNITS
 70
     0
  9
$AUPREC
 70
     0
  9
$MENU
  1
ACAD
  9
$ELEVATION
 40
0.0
  9
$THICKNESS
 40
0.0
  9
$VIEWDIR
 10
0.0
 20
0.0
 30
0.0
  9
$LIMCHECK
 70
     0
  9
$BLIPMODE
 70
     1
  9
$CHAMFERA
 40
0.0
  9
$CHAMFERB
 40
0.0
  9
$FASTZOOM
 70
     1
  9
$SKPOLY
 70
     0
  9
$TDCREATE
 40
2447732.6512363921
  9
$TDUPDATE
 40
2447732.6512363921
  9
$TDINDWG
 40
0.0000000000
  9
$TDUSRTIMER
 40
0.0000000000
  9
$USRTIMER
 70
     1
  9
$ANGBASE
 50
0.0
  9
$ANGDIR
 70
     0
  9
$PDMODE
 70
     0
  9
$PDSIZE
 40
0.0
  9
$PLINEWID
 40
0.0
  9
$COORDS
 70
     0
  9
$USERI1
 70
     0
  9
$USERI2
 70
     0
  9
$USERI3
 70
     0
  9
$USERI4
 70
     0
  9
$USERI5
 70
     0
  9
$USERR1
 40
0.0
  9
$USERR2
 40
0.0
  9
$USERR3
 40
0.0
  9
$USERR4
 40
0.0
  9
$USERR5
 40
0.0
  0
ENDSEC
  0
SECTION
  2
TABLES
  0
TABLE
  2
LAYER
 70
3
  0
LAYER
  2
Layer_1
 70
0
 62
2
  6
CONTINUOUS
  0
LAYER
  2
Layer_2
 70
0
 62
3
  6
CONTINUOUS
  0
LAYER
  2
Layer_3
 70
0
 62
4
  6
CONTINUOUS
  0
ENDTAB
  0
ENDSEC
  0
SECTION
  2
ENTITIES
  0
POLYLINE
  8
Layer_1
  6
CONTINUOUS
 66
1
 10
0.0
 20
0.0
 70
1
  0
VERTEX
  8
Layer_1
 10
-1407.500000
 20
1499.999000
  0
VERTEX
  8
Layer_1
 10
-1407.500000
 20
5500.000000
  0
VERTEX
  8
Layer_1
 10
3092.500000
 20
5500.000000
  0
VERTEX
  8
Layer_1
 10
3092.500000
 20
-4258.903000
  0
VERTEX
  8
Layer_1
 10
-8000.000000
 20
-4258.903000
  0
VERTEX
  8
Layer_1
 10
-8000.000000
 20
5500.000000
  0
VERTEX
  8
Layer_1
 10
-3907.500000
 20
5500.000000
  0
VERTEX
  8
Layer_1
 10
-3907.500000
 20
344.999000
  0
VERTEX
  8
Layer_1
 10
-3907.500000
 20
-58.903000
  0
VERTEX
  8
Layer_1
 10
-4000.000000
 20
-58.903000
  0
VERTEX
  8
Layer_1
 10
-4000.000000
 20
-258.903000
  0
VERTEX
  8
Layer_1
 10
-3800.000000
 20
-258.903000
  0
VERTEX
  8
Layer_1
 10
-3800.000000
 20
-155.001000
  0
VERTEX
  8
Layer_1
 10
-3407.500000
 20
-155.001000
  0
VERTEX
  8
Layer_1
 10
-3407.500000
 20
344.999000
  0
VERTEX
  8
Layer_1
 10
-3907.500000
 20
344.999000
  0
VERTEX
  8
Layer_1
 10
-3907.500000
 20
5500.000000
  0
VERTEX
  8
Layer_1
 10
-3160.000000
 20
5500.000000
  0
VERTEX
  8
Layer_1
 10
-3160.000000
 20
756.097000
  0
VERTEX
  8
Layer_1
 10
-3160.000000
 20
746.097000
  0
VERTEX
  8
Layer_1
 10
-3160.000000
 20
501.097000
  0
VERTEX
  8
Layer_1
 10
-3160.000000
 20
491.097000
  0
VERTEX
  8
Layer_1
 10
-3110.000000
 20
491.097000
  0
VERTEX
  8
Layer_1
 10
-3110.000000
 20
501.097000
  0
VERTEX
  8
Layer_1
 10
-3160.000000
 20
501.097000
  0
VERTEX
  8
Layer_1
 10
-3160.000000
 20
746.097000
  0
VERTEX
  8
Layer_1
 10
-3110.000000
 20
746.097000
  0
VERTEX
  8
Layer_1
 10
-3110.000000
 20
756.097000
  0
VERTEX
  8
Layer_1
 10
-3160.000000
 20
756.097000
  0
VERTEX
  8
Layer_1
 10
-3160.000000
 20
5500.000000
  0
VERTEX
  8
Layer_1
 10
-2905.000000
 20
5500.000000
  0
VERTEX
  8
Layer_1
 10
-2905.000000
 20
756.097000
  0
VERTEX
  8
Layer_1
 10
-2905.000000
 20
746.097000
  0
VERTEX
  8
Layer_1
 10
-2905.000000
 20
501.097000
  0
VERTEX
  8
Layer_1
 10
-2905.000000
 20
491.097000
  0
VERTEX
  8
Layer_1
 10
-2855.000000
 20
491.097000
  0
VERTEX
  8
Layer_1
 10
-2855.000000
 20
501.097000
  0
VERTEX
  8
Layer_1
 10
-2905.000000
 20
501.097000
  0
VERTEX
  8
Layer_1
 10
-2905.000000
 20
746.097000
  0
VERTEX
  8
Layer_1
 10
-2855.000000
 20
746.097000
  0
VERTEX
  8
Layer_1
 10
-2855.000000
 20
756.097000
  0
VERTEX
  8
Layer_1
 10
-2905.000000
 20
756.097000
  0
VERTEX
  8
Layer_1
 10
-2905.000000
 20
5500.000000
  0
VERTEX
  8
Layer_1
 10
-2650.000000
 20
5500.000000
  0
VERTEX
  8
Layer_1
 10
-2650.000000
 20
756.097000
  0
VERTEX
  8
Layer_1
 10
-2650.000000
 20
746.097000
  0
VERTEX
  8
Layer_1
 10
-2650.000000
 20
501.097000
  0
VERTEX
  8
Layer_1
 10
-2650.000000
 20
491.097000
  0
VERTEX
  8
Layer_1
 10
-2600.000000
 20
491.097000
  0
VERTEX
  8
Layer_1
 10
-2600.000000
 20
501.097000
  0
VERTEX
  8
Layer_1
 10
-2650.000000
 20
501.097000
  0
VERTEX
  8
Layer_1
 10
-2650.000000
 20
746.097000
  0
VERTEX
  8
Layer_1
 10
-2600.000000
 20
746.097000
  0
VERTEX
  8
Layer_1
 10
-2600.000000
 20
756.097000
  0
VERTEX
  8
Layer_1
 10
-2650.000000
 20
756.097000
  0
VERTEX
  8
Layer_1
 10
-2650.000000
 20
5500.000000
  0
VERTEX
  8
Layer_1
 10
-2395.000000
 20
5500.000000
  0
VERTEX
  8
Layer_1
 10
-2395.000000
 20
756.097000
  0
VERTEX
  8
Layer_1
 10
-2395.000000
 20
746.097000
  0
VERTEX
  8
Layer_1
 10
-2395.000000
 20
501.097000
  0
VERTEX
  8
Layer_1
 10
-2395.000000
 20
491.097000
  0
VERTEX
  8
Layer_1
 10
-2345.000000
 20
491.097000
  0
VERTEX
  8
Layer_1
 10
-2345.000000
 20
501.097000
  0
VERTEX
  8
Layer_1
 10
-2395.000000
 20
501.097000
  0
VERTEX
  8
Layer_1
 10
-2395.000000
 20
746.097000
  0
VERTEX
  8
Layer_1
 10
-2345.000000
 20
746.097000
  0
VERTEX
  8
Layer_1
 10
-2345.000000
 20
756.097000
  0
VERTEX
  8
Layer_1
 10
-2395.000000
 20
756.097000
  0
VERTEX
  8
Layer_1
 10
-2395.000000
 20
5500.000000
  0
VERTEX
  8
Layer_1
 10
-2140.000000
 20
5500.000000
  0
VERTEX
  8
Layer_1
 10
-2140.000000
 20
756.097000
  0
VERTEX
  8
Layer_1
 10
-2140.000000
 20
746.097000
  0
VERTEX
  8
Layer_1
 10
-2140.000000
 20
501.097000
  0
VERTEX
  8
Layer_1
 10
-2140.000000
 20
491.097000
  0
VERTEX
  8
Layer_1
 10
-2090.000000
 20
491.097000
  0
VERTEX
  8
Layer_1
 10
-2090.000000
 20
501.097000
  0
VERTEX
  8
Layer_1
 10
-2140.000000
 20
501.097000
  0
VERTEX
  8
Layer_1
 10
-2140.000000
 20
746.097000
  0
VERTEX
  8
Layer_1
 10
-2090.000000
 20
746.097000
  0
VERTEX
  8
Layer_1
 10
-2090.000000
 20
756.097000
  0
VERTEX
  8
Layer_1
 10
-2140.000000
 20
756.097000
  0
VERTEX
  8
Layer_1
 10
-2140.000000
 20
5500.000000
  0
VERTEX
  8
Layer_1
 10
-1885.000000
 20
5500.000000
  0
VERTEX
  8
Layer_1
 10
-1885.000000
 20
756.097000
  0
VERTEX
  8
Layer_1
 10
-1885.000000
 20
746.097000
  0
VERTEX
  8
Layer_1
 10
-1885.000000
 20
501.097000
  0
VERTEX
  8
Layer_1
 10
-1885.000000
 20
491.097000
  0
VERTEX
  8
Layer_1
 10
-1835.000000
 20
491.097000
  0
VERTEX
  8
Layer_1
 10
-1835.000000
 20
501.097000
  0
VERTEX
  8
Layer_1
 10
-1885.000000
 20
501.097000
  0
VERTEX
  8
Layer_1
 10
-1885.000000
 20
746.097000
  0
VERTEX
  8
Layer_1
 10
-1835.000000
 20
746.097000
  0
VERTEX
  8
Layer_1
 10
-1835.000000
 20
756.097000
  0
VERTEX
  8
Layer_1
 10
-1885.000000
 20
756.097000
  0
VERTEX
  8
Layer_1
 10
-1885.000000
 20
5500.000000
  0
VERTEX
  8
Layer_1
 10
-1407.500000
 20
5500.000000
  0
VERTEX
  8
Layer_1
 10
-1407.500000
 20
1499.999000
  0
VERTEX
  8
Layer_1
 10
-1407.500000
 20
999.999000
  0
VERTEX
  8
Layer_1
 10
-907.500000
 20
999.999000
  0
VERTEX
  8
Layer_1
 10
-907.500000
 20
1499.999000
  0
VERTEX
  8
Layer_1
 10
-1407.500000
 20
1499.999000
  0
SEQEND
  0
POLYLINE
  8
Layer_1
  6
CONTINUOUS
 66
1
 10
0.0
 20
0.0
 70
1
  0
VERTEX
  8
Layer_1
 10
-1410.000000
 20
951.097000
  0
VERTEX
  8
Layer_1
 10
-860.000000
 20
951.097000
  0
VERTEX
  8
Layer_1
 10
-860.000000
 20
1501.097000
  0
VERTEX
  8
Layer_1
 10
-1410.000000
 20
1501.097000
  0
VERTEX
  8
Layer_1
 10
-1410.000000
 20
951.097000
  0
SEQEND
  0
POLYLINE
  8
Layer_1
  6
CONTINUOUS
 66
1
 10
0.0
 20
0.0
 70
1
  0
VERTEX
  8
Layer_1
 10
-5818.940000
 20
6716.680000
  0
VERTEX
  8
Layer_1
 10
-5818.940000
 20
7496.103000
  0
VERTEX
  8
Layer_1
 10
-5663.835000
 20
7496.103000
  0
VERTEX
  8
Layer_1
 10
-5479.111000
 20
6944.271000
  0
VERTEX
  8
Layer_1
 10
-5467.420000
 20
6908.418000
  0
VERTEX
  8
Layer_1
 10
-5457.288000
 20
6876.461000
  0
VERTEX
  8
Layer_1
 10
-5449.493000
 20
6849.961000
  0
VERTEX
  8
Layer_1
 10
-5442.479000
 20
6828.917000
  0
VERTEX
  8
Layer_1
 10
-5434.684000
 20
6852.299000
  0
VERTEX
  8
Layer_1
 10
-5425.331000
 20
6881.138000
  0
VERTEX
  8
Layer_1
 10
-5414.419000
 20
6914.653000
  0
VERTEX
  8
Layer_1
 10
-5400.390000
 20
6953.624000
  0
VERTEX
  8
Layer_1
 10
-5214.108000
 20
7496.103000
  0
VERTEX
  8
Layer_1
 10
-5075.370000
 20
7496.103000
  0
VERTEX
  8
Layer_1
 10
-5075.370000
 20
6716.680000
  0
VERTEX
  8
Layer_1
 10
-5175.136000
 20
6716.680000
  0
VERTEX
  8
Layer_1
 10
-5175.136000
 20
7369.057000
  0
VERTEX
  8
Layer_1
 10
-5401.169000
 20
6716.680000
  0
VERTEX
  8
Layer_1
 10
-5494.700000
 20
6716.680000
  0
VERTEX
  8
Layer_1
 10
-5719.953000
 20
7379.969000
  0
VERTEX
  8
Layer_1
 10
-5719.953000
 20
6716.680000
  0
VERTEX
  8
Layer_1
 10
-5818.940000
 20
6716.680000
  0
SEQEND
  0
POLYLINE
  8
Layer_1
  6
CONTINUOUS
 66
1
 10
0.0
 20
0.0
 70
1
  0
VERTEX
  8
Layer_1
 10
-4764.380000
 20
6716.680000
  0
VERTEX
  8
Layer_1
 10
-4979.501000
 20
7280.982000
  0
VERTEX
  8
Layer_1
 10
-4878.176000
 20
7280.982000
  0
VERTEX
  8
Layer_1
 10
-4756.586000
 20
6943.492000
  0
VERTEX
  8
Layer_1
 10
-4747.233000
 20
6915.433000
  0
VERTEX
  8
Layer_1
 10
-4738.659000
 20
6887.373000
  0
VERTEX
  8
Layer_1
 10
-4729.306000
 20
6858.535000
  0
VERTEX
  8
Layer_1
 10
-4720.733000
 20
6829.696000
  0
VERTEX
  8
Layer_1
 10
-4713.718000
 20
6853.079000
  0
VERTEX
  8
Layer_1
 10
-4705.924000
 20
6878.020000
  0
VERTEX
  8
Layer_1
 10
-4696.571000
 20
6906.859000
  0
VERTEX
  8
Layer_1
 10
-4684.879000
 20
6936.477000
  0
VERTEX
  8
Layer_1
 10
-4559.392000
 20
7280.982000
  0
VERTEX
  8
Layer_1
 10
-4461.185000
 20
7280.982000
  0
VERTEX
  8
Layer_1
 10
-4674.747000
 20
6716.680000
  0
VERTEX
  8
Layer_1
 10
-4764.380000
 20
6716.680000
  0
SEQEND
  0
POLYLINE
  8
Layer_1
  6
CONTINUOUS
 66
1
 10
0.0
 20
0.0
 70
1
  0
VERTEX
  8
Layer_1
 10
-4147.857000
 20
7214.731000
  0
VERTEX
  8
Layer_1
 10
-4147.857000
 20
7294.232000
  0
VERTEX
  8
Layer_1
 10
-4092.518000
 20
7289.556000
  0
VERTEX
  8
Layer_1
 10
-4041.855000
 20
7274.747000
  0
VERTEX
  8
Layer_1
 10
-3997.428000
 20
7251.364000
  0
VERTEX
  8
Layer_1
 10
-3957.677000
 20
7217.849000
  0
VERTEX
  8
Layer_1
 10
-3925.721000
 20
7175.760000
  0
VERTEX
  8
Layer_1
 10
-3902.338000
 20
7126.656000
  0
VERTEX
  8
Layer_1
 10
-3888.309000
 20
7070.538000
  0
VERTEX
  8
Layer_1
 10
-3883.632000
 20
7006.625000
  0
VERTEX
  8
Layer_1
 10
-3885.191000
 20
6955.183000
  0
VERTEX
  8
Layer_1
 10
-3892.206000
 20
6909.197000
  0
VERTEX
  8
Layer_1
 10
-3902.338000
 20
6869.447000
  0
VERTEX
  8
Layer_1
 10
-3916.368000
 20
6835.152000
  0
VERTEX
  8
Layer_1
 10
-3935.074000
 20
6805.534000
  0
VERTEX
  8
Layer_1
 10
-3956.898000
 20
6779.813000
  0
VERTEX
  8
Layer_1
 10
-3982.619000
 20
6757.210000
  0
VERTEX
  8
Layer_1
 10
-4011.458000
 20
6738.504000
  0
VERTEX
  8
Layer_1
 10
-4043.414000
 20
6722.915000
  0
VERTEX
  8
Layer_1
 10
-4076.929000
 20
6712.783000
  0
VERTEX
  8
Layer_1
 10
-4111.224000
 20
6705.768000
  0
VERTEX
  8
Layer_1
 10
-4147.857000
 20
6704.209000
  0
VERTEX
  8
Layer_1
 10
-4204.754000
 20
6708.106000
  0
VERTEX
  8
Layer_1
 10
-4254.638000
 20
6722.915000
  0
VERTEX
  8
Layer_1
 10
-4299.844000
 20
6746.298000
  0
VERTEX
  8
Layer_1
 10
-4339.595000
 20
6779.813000
  0
VERTEX
  8
Layer_1
 10
-4371.551000
 20
6821.902000
  0
VERTEX
  8
Layer_1
 10
-4394.154000
 20
6872.564000
  0
VERTEX
  8
Layer_1
 10
-4408.184000
 20
6931.800000
  0
VERTEX
  8
Layer_1
 10
-4412.081000
 20
6998.831000
  0
VERTEX
  8
Layer_1
 10
-4407.405000
 20
7072.097000
  0
VERTEX
  8
Layer_1
 10
-4390.257000
 20
7135.230000
  0
VERTEX
  8
Layer_1
 10
-4363.757000
 20
7188.231000
  0
VERTEX
  8
Layer_1
 10
-4325.565000
 20
7231.099000
  0
VERTEX
  8
Layer_1
 10
-4286.594000
 20
7258.379000
  0
VERTEX
  8
Layer_1
 10
-4244.505000
 20
7277.864000
  0
VERTEX
  8
Layer_1
 10
-4198.519000
 20
7289.556000
  0
VERTEX
  8
Layer_1
 10
-4147.857000
 20
7294.232000
  0
VERTEX
  8
Layer_1
 10
-4147.857000
 20
7214.731000
  0
VERTEX
  8
Layer_1
 10
-4182.151000
 20
7210.834000
  0
VERTEX
  8
Layer_1
 10
-4213.328000
 20
7200.701000
  0
VERTEX
  8
Layer_1
 10
-4241.387000
 20
7184.334000
  0
VERTEX
  8
Layer_1
 10
-4267.108000
 20
7160.951000
  0
VERTEX
  8
Layer_1
 10
-4287.373000
 20
7130.553000
  0
VERTEX
  8
Layer_1
 10
-4302.182000
 20
7093.920000
  0
VERTEX
  8
Layer_1
 10
-4311.535000
 20
7049.493000
  0
VERTEX
  8
Layer_1
 10
-4313.874000
 20
6998.831000
  0
VERTEX
  8
Layer_1
 10
-4311.535000
 20
6948.168000
  0
VERTEX
  8
Layer_1
 10
-4302.182000
 20
6903.741000
  0
VERTEX
  8
Layer_1
 10
-4287.373000
 20
6866.329000
  0
VERTEX
  8
Layer_1
 10
-4267.108000
 20
6835.931000
  0
VERTEX
  8
Layer_1
 10
-4241.387000
 20
6812.549000
  0
VERTEX
  8
Layer_1
 10
-4213.328000
 20
6796.181000
  0
VERTEX
  8
Layer_1
 10
-4182.151000
 20
6786.048000
  0
VERTEX
  8
Layer_1
 10
-4147.857000
 20
6782.931000
  0
VERTEX
  8
Layer_1
 10
-4113.562000
 20
6786.048000
  0
VERTEX
  8
Layer_1
 10
-4082.385000
 20
6796.181000
  0
VERTEX
  8
Layer_1
 10
-4054.326000
 20
6812.549000
  0
VERTEX
  8
Layer_1
 10
-4029.384000
 20
6836.711000
  0
VERTEX
  8
Layer_1
 10
-4009.119000
 20
6867.108000
  0
VERTEX
  8
Layer_1
 10
-3994.310000
 20
6904.521000
  0
VERTEX
  8
Layer_1
 10
-3984.957000
 20
6949.727000
  0
VERTEX
  8
Layer_1
 10
-3981.839000
 20
7001.949000
  0
VERTEX
  8
Layer_1
 10
-3984.957000
 20
7051.052000
  0
VERTEX
  8
Layer_1
 10
-3994.310000
 20
7093.920000
  0
VERTEX
  8
Layer_1
 10
-4009.119000
 20
7130.553000
  0
VERTEX
  8
Layer_1
 10
-4029.384000
 20
7160.951000
  0
VERTEX
  8
Layer_1
 10
-4055.105000
 20
7184.334000
  0
VERTEX
  8
Layer_1
 10
-4082.385000
 20
7200.701000
  0
VERTEX
  8
Layer_1
 10
-4114.341000
 20
7210.834000
  0
VERTEX
  8
Layer_1
 10
-4147.857000
 20
7214.731000
  0
SEQEND
  0
POLYLINE
  8
Layer_1
  6
CONTINUOUS
 66
1
 10
0.0
 20
0.0
 70
1
  0
VERTEX
  8
Layer_1
 10
-3772.954000
 20
6716.680000
  0
VERTEX
  8
Layer_1
 10
-3772.954000
 20
7496.103000
  0
VERTEX
  8
Layer_1
 10
-3677.864000
 20
7496.103000
  0
VERTEX
  8
Layer_1
 10
-3677.864000
 20
6716.680000
  0
VERTEX
  8
Layer_1
 10
-3772.954000
 20
6716.680000
  0
SEQEND
  0
POLYLINE
  8
Layer_1
  6
CONTINUOUS
 66
1
 10
0.0
 20
0.0
 70
1
  0
VERTEX
  8
Layer_1
 10
-3062.899000
 20
6716.680000
  0
VERTEX
  8
Layer_1
 10
-3062.899000
 20
7280.982000
  0
VERTEX
  8
Layer_1
 10
-2976.384000
 20
7280.982000
  0
VERTEX
  8
Layer_1
 10
-2976.384000
 20
7196.025000
  0
VERTEX
  8
Layer_1
 10
-2960.795000
 20
7222.525000
  0
VERTEX
  8
Layer_1
 10
-2945.207000
 20
7245.129000
  0
VERTEX
  8
Layer_1
 10
-2930.398000
 20
7263.055000
  0
VERTEX
  8
Layer_1
 10
-2915.588000
 20
7274.747000
  0
VERTEX
  8
Layer_1
 10
-2901.559000
 20
7282.541000
  0
VERTEX
  8
Layer_1
 10
-2886.750000
 20
7289.556000
  0
VERTEX
  8
Layer_1
 10
-2871.161000
 20
7292.673000
  0
VERTEX
  8
Layer_1
 10
-2854.014000
 20
7294.232000
  0
VERTEX
  8
Layer_1
 10
-2830.631000
 20
7291.894000
  0
VERTEX
  8
Layer_1
 10
-2805.690000
 20
7286.438000
  0
VERTEX
  8
Layer_1
 10
-2780.748000
 20
7276.306000
  0
VERTEX
  8
Layer_1
 10
-2755.807000
 20
7263.055000
  0
VERTEX
  8
Layer_1
 10
-2788.543000
 20
7174.201000
  0
VERTEX
  8
Layer_1
 10
-2806.469000
 20
7183.554000
  0
VERTEX
  8
Layer_1
 10
-2823.617000
 20
7189.790000
  0
VERTEX
  8
Layer_1
 10
-2841.543000
 20
7193.687000
  0
VERTEX
  8
Layer_1
 10
-2858.691000
 20
7195.246000
  0
VERTEX
  8
Layer_1
 10
-2874.279000
 20
7193.687000
  0
VERTEX
  8
Layer_1
 10
-2889.088000
 20
7190.569000
  0
VERTEX
  8
Layer_1
 10
-2902.338000
 20
7184.334000
  0
VERTEX
  8
Layer_1
 10
-2915.588000
 20
7175.760000
  0
VERTEX
  8
Layer_1
 10
-2927.280000
 20
7165.627000
  0
VERTEX
  8
Layer_1
 10
-2937.412000
 20
7153.936000
  0
VERTEX
  8
Layer_1
 10
-2945.207000
 20
7139.127000
  0
VERTEX
  8
Layer_1
 10
-2951.442000
 20
7124.318000
  0
VERTEX
  8
Layer_1
 10
-2958.457000
 20
7097.038000
  0
VERTEX
  8
Layer_1
 10
-2963.133000
 20
7070.538000
  0
VERTEX
  8
Layer_1
 10
-2966.251000
 20
7041.699000
  0
VERTEX
  8
Layer_1
 10
-2967.030000
 20
7012.081000
  0
VERTEX
  8
Layer_1
 10
-2967.030000
 20
6716.680000
  0
VERTEX
  8
Layer_1
 10
-3062.899000
 20
6716.680000
  0
SEQEND
  0
POLYLINE
  8
Layer_1
  6
CONTINUOUS
 66
1
 10
0.0
 20
0.0
 70
1
  0
VERTEX
  8
Layer_1
 10
-2573.422000
 20
7274.747000
  0
VERTEX
  8
Layer_1
 10
-2522.759000
 20
7288.776000
  0
VERTEX
  8
Layer_1
 10
-2467.420000
 20
7294.232000
  0
VERTEX
  8
Layer_1
 10
-2465.861000
 20
7294.232000
  0
VERTEX
  8
Layer_1
 10
-2465.861000
 20
7215.511000
  0
VERTEX
  8
Layer_1
 10
-2497.818000
 20
7212.393000
  0
VERTEX
  8
Layer_1
 10
-2527.436000
 20
7204.599000
  0
VERTEX
  8
Layer_1
 10
-2553.936000
 20
7190.569000
  0
VERTEX
  8
Layer_1
 10
-2577.319000
 20
7171.083000
  0
VERTEX
  8
Layer_1
 10
-2597.584000
 20
7147.701000
  0
VERTEX
  8
Layer_1
 10
-2612.393000
 20
7119.641000
  0
VERTEX
  8
Layer_1
 10
-2621.746000
 20
7088.465000
  0
VERTEX
  8
Layer_1
 10
-2626.422000
 20
7053.390000
  0
VERTEX
  8
Layer_1
 10
-2311.535000
 20
7053.390000
  0
VERTEX
  8
Layer_1
 10
-2316.212000
 20
7086.126000
  0
VERTEX
  8
Layer_1
 10
-2324.006000
 20
7115.744000
  0
VERTEX
  8
Layer_1
 10
-2334.139000
 20
7139.906000
  0
VERTEX
  8
Layer_1
 10
-2347.389000
 20
7160.171000
  0
VERTEX
  8
Layer_1
 10
-2372.331000
 20
7184.334000
  0
VERTEX
  8
Layer_1
 10
-2400.390000
 20
7201.481000
  0
VERTEX
  8
Layer_1
 10
-2431.567000
 20
7211.613000
  0
VERTEX
  8
Layer_1
 10
-2465.861000
 20
7215.511000
  0
VERTEX
  8
Layer_1
 10
-2465.861000
 20
7294.232000
  0
VERTEX
  8
Layer_1
 10
-2413.640000
 20
7288.776000
  0
VERTEX
  8
Layer_1
 10
-2364.536000
 20
7274.747000
  0
VERTEX
  8
Layer_1
 10
-2320.889000
 20
7250.585000
  0
VERTEX
  8
Layer_1
 10
-2281.917000
 20
7217.069000
  0
VERTEX
  8
Layer_1
 10
-2250.740000
 20
7174.201000
  0
VERTEX
  8
Layer_1
 10
-2228.137000
 20
7124.318000
  0
VERTEX
  8
Layer_1
 10
-2214.887000
 20
7065.861000
  0
VERTEX
  8
Layer_1
 10
-2210.210000
 20
7000.390000
  0
VERTEX
  8
Layer_1
 10
-2210.990000
 20
6994.934000
  0
VERTEX
  8
Layer_1
 10
-2210.990000
 20
6974.669000
  0
VERTEX
  8
Layer_1
 10
-2631.878000
 20
6974.669000
  0
VERTEX
  8
Layer_1
 10
-2627.202000
 20
6930.242000
  0
VERTEX
  8
Layer_1
 10
-2616.290000
 20
6892.050000
  0
VERTEX
  8
Layer_1
 10
-2600.702000
 20
6859.314000
  0
VERTEX
  8
Layer_1
 10
-2579.657000
 20
6832.034000
  0
VERTEX
  8
Layer_1
 10
-2554.716000
 20
6810.210000
  0
VERTEX
  8
Layer_1
 10
-2525.877000
 20
6794.622000
  0
VERTEX
  8
Layer_1
 10
-2495.479000
 20
6785.269000
  0
VERTEX
  8
Layer_1
 10
-2461.185000
 20
6782.931000
  0
VERTEX
  8
Layer_1
 10
-2436.243000
 20
6784.489000
  0
VERTEX
  8
Layer_1
 10
-2412.861000
 20
6789.166000
  0
VERTEX
  8
Layer_1
 10
-2391.037000
 20
6797.740000
  0
VERTEX
  8
Layer_1
 10
-2371.551000
 20
6810.210000
  0
VERTEX
  8
Layer_1
 10
-2353.624000
 20
6825.799000
  0
VERTEX
  8
Layer_1
 10
-2338.815000
 20
6846.064000
  0
VERTEX
  8
Layer_1
 10
-2324.786000
 20
6869.447000
  0
VERTEX
  8
Layer_1
 10
-2312.315000
 20
6898.285000
  0
VERTEX
  8
Layer_1
 10
-2213.328000
 20
6886.594000
  0
VERTEX
  8
Layer_1
 10
-2228.137000
 20
6845.284000
  0
VERTEX
  8
Layer_1
 10
-2246.843000
 20
6809.431000
  0
VERTEX
  8
Layer_1
 10
-2271.785000
 20
6777.475000
  0
VERTEX
  8
Layer_1
 10
-2300.624000
 20
6751.754000
  0
VERTEX
  8
Layer_1
 10
-2334.139000
 20
6730.709000
  0
VERTEX
  8
Layer_1
 10
-2372.331000
 20
6715.900000
  0
VERTEX
  8
Layer_1
 10
-2415.199000
 20
6706.547000
  0
VERTEX
  8
Layer_1
 10
-2461.964000
 20
6704.209000
  0
VERTEX
  8
Layer_1
 10
-2521.200000
 20
6708.106000
  0
VERTEX
  8
Layer_1
 10
-2573.422000
 20
6722.915000
  0
VERTEX
  8
Layer_1
 10
-2619.408000
 20
6746.298000
  0
VERTEX
  8
Layer_1
 10
-2658.379000
 20
6779.813000
  0
VERTEX
  8
Layer_1
 10
-2690.335000
 20
6821.902000
  0
VERTEX
  8
Layer_1
 10
-2712.938000
 20
6871.005000
  0
VERTEX
  8
Layer_1
 10
-2726.968000
 20
6928.683000
  0
VERTEX
  8
Layer_1
 10
-2730.865000
 20
6994.154000
  0
VERTEX
  8
Layer_1
 10
-2726.968000
 20
7061.185000
  0
VERTEX
  8
Layer_1
 10
-2712.938000
 20
7120.421000
  0
VERTEX
  8
Layer_1
 10
-2690.335000
 20
7171.863000
  0
VERTEX
  8
Layer_1
 10
-2657.599000
 20
7215.511000
  0
VERTEX
  8
Layer_1
 10
-2617.849000
 20
7249.026000
  0
VERTEX
  8
Layer_1
 10
-2573.422000
 20
7274.747000
  0
SEQEND
  0
POLYLINE
  8
Layer_1
  6
CONTINUOUS
 66
1
 10
0.0
 20
0.0
 70
1
  0
VERTEX
  8
Layer_1
 10
-2131.489000
 20
6885.035000
  0
VERTEX
  8
Layer_1
 10
-2037.179000
 20
6899.844000
  0
VERTEX
  8
Layer_1
 10
-2031.723000
 20
6873.344000
  0
VERTEX
  8
Layer_1
 10
-2022.369000
 20
6849.961000
  0
VERTEX
  8
Layer_1
 10
-2009.119000
 20
6829.696000
  0
VERTEX
  8
Layer_1
 10
-1992.751000
 20
6812.549000
  0
VERTEX
  8
Layer_1
 10
-1973.266000
 20
6799.299000
  0
VERTEX
  8
Layer_1
 10
-1949.104000
 20
6789.945000
  0
VERTEX
  8
Layer_1
 10
-1922.603000
 20
6784.489000
  0
VERTEX
  8
Layer_1
 10
-1890.647000
 20
6782.931000
  0
VERTEX
  8
Layer_1
 10
-1860.249000
 20
6784.489000
  0
VERTEX
  8
Layer_1
 10
-1833.749000
 20
6789.166000
  0
VERTEX
  8
Layer_1
 10
-1811.146000
 20
6797.740000
  0
VERTEX
  8
Layer_1
 10
-1793.219000
 20
6809.431000
  0
VERTEX
  8
Layer_1
 10
-1779.189000
 20
6822.681000
  0
VERTEX
  8
Layer_1
 10
-1769.057000
 20
6838.270000
  0
VERTEX
  8
Layer_1
 10
-1763.601000
 20
6854.638000
  0
VERTEX
  8
Layer_1
 10
-1761.263000
 20
6872.564000
  0
VERTEX
  8
Layer_1
 10
-1763.601000
 20
6887.373000
  0
VERTEX
  8
Layer_1
 10
-1768.278000
 20
6901.403000
  0
VERTEX
  8
Layer_1
 10
-1776.851000
 20
6913.094000
  0
VERTEX
  8
Layer_1
 10
-1789.322000
 20
6923.227000
  0
VERTEX
  8
Layer_1
 10
-1803.352000
 20
6930.242000
  0
VERTEX
  8
Layer_1
 10
-1823.617000
 20
6938.036000
  0
VERTEX
  8
Layer_1
 10
-1852.455000
 20
6946.610000
  0
VERTEX
  8
Layer_1
 10
-1887.529000
 20
6955.963000
  0
VERTEX
  8
Layer_1
 10
-1935.854000
 20
6968.433000
  0
VERTEX
  8
Layer_1
 10
-1976.384000
 20
6980.125000
  0
VERTEX
  8
Layer_1
 10
-2009.119000
 20
6991.816000
  0
VERTEX
  8
Layer_1
 10
-2033.281000
 20
7001.949000
  0
VERTEX
  8
Layer_1
 10
-2052.767000
 20
7012.081000
  0
VERTEX
  8
Layer_1
 10
-2069.135000
 20
7024.552000
  0
VERTEX
  8
Layer_1
 10
-2083.164000
 20
7038.581000
  0
VERTEX
  8
Layer_1
 10
-2094.856000
 20
7055.729000
  0
VERTEX
  8
Layer_1
 10
-2104.988000
 20
7072.876000
  0
VERTEX
  8
Layer_1
 10
-2111.224000
 20
7091.582000
  0
VERTEX
  8
Layer_1
 10
-2115.121000
 20
7110.288000
  0
VERTEX
  8
Layer_1
 10
-2115.900000
 20
7131.333000
  0
VERTEX
  8
Layer_1
 10
-2115.121000
 20
7149.260000
  0
VERTEX
  8
Layer_1
 10
-2111.224000
 20
7167.186000
  0
VERTEX
  8
Layer_1
 10
-2106.547000
 20
7184.334000
  0
VERTEX
  8
Layer_1
 10
-2098.753000
 20
7200.701000
  0
VERTEX
  8
Layer_1
 10
-2089.400000
 20
7216.290000
  0
VERTEX
  8
Layer_1
 10
-2078.488000
 20
7230.320000
  0
VERTEX
  8
Layer_1
 10
-2066.017000
 20
7242.790000
  0
VERTEX
  8
Layer_1
 10
-2051.208000
 20
7254.482000
  0
VERTEX
  8
Layer_1
 10
-2039.517000
 20
7262.276000
  0
VERTEX
  8
Layer_1
 10
-2025.487000
 20
7269.291000
  0
VERTEX
  8
Layer_1
 10
-2009.119000
 20
7276.306000
  0
VERTEX
  8
Layer_1
 10
-1991.193000
 20
7282.541000
  0
VERTEX
  8
Layer_1
 10
-1970.928000
 20
7287.217000
  0
VERTEX
  8
Layer_1
 10
-1950.663000
 20
7291.115000
  0
VERTEX
  8
Layer_1
 10
-1929.618000
 20
7292.673000
  0
VERTEX
  8
Layer_1
 10
-1907.794000
 20
7294.232000
  0
VERTEX
  8
Layer_1
 10
-1875.838000
 20
7292.673000
  0
VERTEX
  8
Layer_1
 10
-1845.440000
 20
7289.556000
  0
VERTEX
  8
Layer_1
 10
-1817.381000
 20
7282.541000
  0
VERTEX
  8
Layer_1
 10
-1791.660000
 20
7274.747000
  0
VERTEX
  8
Layer_1
 10
-1768.278000
 20
7264.614000
  0
VERTEX
  8
Layer_1
 10
-1748.013000
 20
7252.143000
  0
VERTEX
  8
Layer_1
 10
-1730.865000
 20
7238.114000
  0
VERTEX
  8
Layer_1
 10
-1716.836000
 20
7222.525000
  0
VERTEX
  8
Layer_1
 10
-1706.703000
 20
7204.599000
  0
VERTEX
  8
Layer_1
 10
-1696.571000
 20
7184.334000
  0
VERTEX
  8
Layer_1
 10
-1689.556000
 20
7160.951000
  0
VERTEX
  8
Layer_1
 10
-1684.100000
 20
7136.009000
  0
VERTEX
  8
Layer_1
 10
-1777.631000
 20
7122.759000
  0
VERTEX
  8
Layer_1
 10
-1782.307000
 20
7143.024000
  0
VERTEX
  8
Layer_1
 10
-1790.101000
 20
7161.730000
  0
VERTEX
  8
Layer_1
 10
-1801.013000
 20
7177.319000
  0
VERTEX
  8
Layer_1
 10
-1815.043000
 20
7190.569000
  0
VERTEX
  8
Layer_1
 10
-1832.190000
 20
7201.481000
  0
VERTEX
  8
Layer_1
 10
-1851.676000
 20
7209.275000
  0
VERTEX
  8
Layer_1
 10
-1875.058000
 20
7213.952000
  0
VERTEX
  8
Layer_1
 10
-1900.779000
 20
7215.511000
  0
VERTEX
  8
Layer_1
 10
-1931.956000
 20
7213.952000
  0
VERTEX
  8
Layer_1
 10
-1957.677000
 20
7209.275000
  0
VERTEX
  8
Layer_1
 10
-1979.501000
 20
7202.260000
  0
VERTEX
  8
Layer_1
 10
-1995.090000
 20
7193.687000
  0
VERTEX
  8
Layer_1
 10
-2007.560000
 20
7181.995000
  0
VERTEX
  8
Layer_1
 10
-2016.134000
 20
7169.525000
  0
VERTEX
  8
Layer_1
 10
-2021.590000
 20
7156.274000
  0
VERTEX
  8
Layer_1
 10
-2023.149000
 20
7142.245000
  0
VERTEX
  8
Layer_1
 10
-2023.149000
 20
7132.892000
  0
VERTEX
  8
Layer_1
 10
-2020.811000
 20
7124.318000
  0
VERTEX
  8
Layer_1
 10
-2016.914000
 20
7116.524000
  0
VERTEX
  8
Layer_1
 10
-2011.458000
 20
7108.730000
  0
VERTEX
  8
Layer_1
 10
-2005.222000
 20
7101.715000
  0
VERTEX
  8
Layer_1
 10
-1996.649000
 20
7094.700000
  0
VERTEX
  8
Layer_1
 10
-1986.516000
 20
7088.465000
  0
VERTEX
  8
Layer_1
 10
-1974.825000
 20
7083.788000
  0
VERTEX
  8
Layer_1
 10
-1963.913000
 20
7079.891000
  0
VERTEX
  8
Layer_1
 10
-1946.765000
 20
7074.435000
  0
VERTEX
  8
Layer_1
 10
-1922.603000
 20
7067.420000
  0
VERTEX
  8
Layer_1
 10
-1890.647000
 20
7058.846000
  0
VERTEX
  8
Layer_1
 10
-1843.882000
 20
7045.596000
  0
VERTEX
  8
Layer_1
 10
-1804.131000
 20
7033.905000
  0
VERTEX
  8
Layer_1
 10
-1772.954000
 20
7023.772000
  0
VERTEX
  8
Layer_1
 10
-1748.792000
 20
7014.419000
  0
VERTEX
  8
Layer_1
 10
-1730.086000
 20
7005.066000
  0
VERTEX
  8
Layer_1
 10
-1713.718000
 20
6993.375000
  0
VERTEX
  8
Layer_1
 10
-1698.129000
 20
6980.125000
  0
VERTEX
  8
Layer_1
 10
-1685.659000
 20
6964.536000
  0
VERTEX
  8
Layer_1
 10
-1676.306000
 20
6946.610000
  0
VERTEX
  8
Layer_1
 10
-1668.511000
 20
6927.124000
  0
VERTEX
  8
Layer_1
 10
-1664.614000
 20
6906.079000
  0
VERTEX
  8
Layer_1
 10
-1663.055000
 20
6882.697000
  0
VERTEX
  8
Layer_1
 10
-1664.614000
 20
6858.535000
  0
VERTEX
  8
Layer_1
 10
-1670.070000
 20
6835.931000
  0
VERTEX
  8
Layer_1
 10
-1678.644000
 20
6813.328000
  0
VERTEX
  8
Layer_1
 10
-1691.115000
 20
6792.284000
  0
VERTEX
  8
Layer_1
 10
-1706.703000
 20
6772.019000
  0
VERTEX
  8
Layer_1
 10
-1725.409000
 20
6754.092000
  0
VERTEX
  8
Layer_1
 10
-1746.454000
 20
6739.283000
  0
VERTEX
  8
Layer_1
 10
-1771.395000
 20
6726.812000
  0
VERTEX
  8
Layer_1
 10
-1798.675000
 20
6716.680000
  0
VERTEX
  8
Layer_1
 10
-1827.514000
 20
6708.885000
  0
VERTEX
  8
Layer_1
 10
-1858.691000
 20
6704.988000
  0
VERTEX
  8
Layer_1
 10
-1890.647000
 20
6704.209000
  0
VERTEX
  8
Layer_1
 10
-1942.868000
 20
6706.547000
  0
VERTEX
  8
Layer_1
 10
-1987.295000
 20
6715.121000
  0
VERTEX
  8
Layer_1
 10
-2026.267000
 20
6729.150000
  0
VERTEX
  8
Layer_1
 10
-2058.223000
 20
6749.415000
  0
VERTEX
  8
Layer_1
 10
-2084.723000
 20
6775.136000
  0
VERTEX
  8
Layer_1
 10
-2105.768000
 20
6806.313000
  0
VERTEX
  8
Layer_1
 10
-2121.356000
 20
6842.946000
  0
VERTEX
  8
Layer_1
 10
-2131.489000
 20
6885.035000
  0
SEQEND
  0
POLYLINE
  8
Layer_1
  6
CONTINUOUS
 66
1
 10
0.0
 20
0.0
 70
1
  0
VERTEX
  8
Layer_1
 10
-1548.480000
 20
7386.204000
  0
VERTEX
  8
Layer_1
 10
-1548.480000
 20
7496.103000
  0
VERTEX
  8
Layer_1
 10
-1452.611000
 20
7496.103000
  0
VERTEX
  8
Layer_1
 10
-1452.611000
 20
7386.204000
  0
VERTEX
  8
Layer_1
 10
-1548.480000
 20
7386.204000
  0
SEQEND
  0
POLYLINE
  8
Layer_1
  6
CONTINUOUS
 66
1
 10
0.0
 20
0.0
 70
1
  0
VERTEX
  8
Layer_1
 10
-1548.480000
 20
6716.680000
  0
VERTEX
  8
Layer_1
 10
-1548.480000
 20
7280.982000
  0
VERTEX
  8
Layer_1
 10
-1452.611000
 20
7280.982000
  0
VERTEX
  8
Layer_1
 10
-1452.611000
 20
6716.680000
  0
VERTEX
  8
Layer_1
 10
-1548.480000
 20
6716.680000
  0
SEQEND
  0
POLYLINE
  8
Layer_1
  6
CONTINUOUS
 66
1
 10
0.0
 20
0.0
 70
1
  0
VERTEX
  8
Layer_1
 10
-1306.859000
 20
6716.680000
  0
VERTEX
  8
Layer_1
 10
-1306.859000
 20
7280.982000
  0
VERTEX
  8
Layer_1
 10
-1221.122000
 20
7280.982000
  0
VERTEX
  8
Layer_1
 10
-1221.122000
 20
7200.701000
  0
VERTEX
  8
Layer_1
 10
-1186.828000
 20
7241.231000
  0
VERTEX
  8
Layer_1
 10
-1144.739000
 20
7270.850000
  0
VERTEX
  8
Layer_1
 10
-1096.415000
 20
7287.997000
  0
VERTEX
  8
Layer_1
 10
-1041.076000
 20
7294.232000
  0
VERTEX
  8
Layer_1
 10
-1016.134000
 20
7292.673000
  0
VERTEX
  8
Layer_1
 10
-992.751000
 20
7289.556000
  0
VERTEX
  8
Layer_1
 10
-969.369000
 20
7283.320000
  0
VERTEX
  8
Layer_1
 10
-947.545000
 20
7275.526000
  0
VERTEX
  8
Layer_1
 10
-928.059000
 20
7265.394000
  0
VERTEX
  8
Layer_1
 10
-910.133000
 20
7254.482000
  0
VERTEX
  8
Layer_1
 10
-895.324000
 20
7241.231000
  0
VERTEX
  8
Layer_1
 10
-883.632000
 20
7227.981000
  0
VERTEX
  8
Layer_1
 10
-873.500000
 20
7211.613000
  0
VERTEX
  8
Layer_1
 10
-865.705000
 20
7194.466000
  0
VERTEX
  8
Layer_1
 10
-858.691000
 20
7176.539000
  0
VERTEX
  8
Layer_1
 10
-854.014000
 20
7157.054000
  0
VERTEX
  8
Layer_1
 10
-851.676000
 20
7140.686000
  0
VERTEX
  8
Layer_1
 10
-850.117000
 20
7120.421000
  0
VERTEX
  8
Layer_1
 10
-848.558000
 20
7093.920000
  0
VERTEX
  8
Layer_1
 10
-848.558000
 20
7063.523000
  0
VERTEX
  8
Layer_1
 10
-848.558000
 20
6716.680000
  0
VERTEX
  8
Layer_1
 10
-943.648000
 20
6716.680000
  0
VERTEX
  8
Layer_1
 10
-943.648000
 20
7060.405000
  0
VERTEX
  8
Layer_1
 10
-945.207000
 20
7086.906000
  0
VERTEX
  8
Layer_1
 10
-947.545000
 20
7111.068000
  0
VERTEX
  8
Layer_1
 10
-950.663000
 20
7130.553000
  0
VERTEX
  8
Layer_1
 10
-955.339000
 20
7147.701000
  0
VERTEX
  8
Layer_1
 10
-962.354000
 20
7160.951000
  0
VERTEX
  8
Layer_1
 10
-970.928000
 20
7173.422000
  0
VERTEX
  8
Layer_1
 10
-982.619000
 20
7184.334000
  0
VERTEX
  8
Layer_1
 10
-995.090000
 20
7193.687000
  0
VERTEX
  8
Layer_1
 10
-1009.899000
 20
7200.701000
  0
VERTEX
  8
Layer_1
 10
-1026.267000
 20
7206.157000
  0
VERTEX
  8
Layer_1
 10
-1043.414000
 20
7209.275000
  0
VERTEX
  8
Layer_1
 10
-1061.341000
 20
7210.834000
  0
VERTEX
  8
Layer_1
 10
-1090.959000
 20
7208.496000
  0
VERTEX
  8
Layer_1
 10
-1119.018000
 20
7200.701000
  0
VERTEX
  8
Layer_1
 10
-1144.739000
 20
7189.010000
  0
VERTEX
  8
Layer_1
 10
-1167.342000
 20
7172.642000
  0
VERTEX
  8
Layer_1
 10
-1186.828000
 20
7148.480000
  0
VERTEX
  8
Layer_1
 10
-1200.857000
 20
7115.744000
  0
VERTEX
  8
Layer_1
 10
-1208.652000
 20
7074.435000
  0
VERTEX
  8
Layer_1
 10
-1211.769000
 20
7025.331000
  0
VERTEX
  8
Layer_1
 10
-1211.769000
 20
6716.680000
  0
VERTEX
  8
Layer_1
 10
-1306.859000
 20
6716.680000
  0
SEQEND
  0
POLYLINE
  8
Layer_1
  6
CONTINUOUS
 66
1
 10
0.0
 20
0.0
 70
1
  0
VERTEX
  8
Layer_1
 10
-575.760000
 20
7274.747000
  0
VERTEX
  8
Layer_1
 10
-525.877000
 20
7288.776000
  0
VERTEX
  8
Layer_1
 10
-469.758000
 20
7294.232000
  0
VERTEX
  8
Layer_1
 10
-468.979000
 20
7294.232000
  0
VERTEX
  8
Layer_1
 10
-468.979000
 20
7215.511000
  0
VERTEX
  8
Layer_1
 10
-500.935000
 20
7212.393000
  0
VERTEX
  8
Layer_1
 10
-529.774000
 20
7204.599000
  0
VERTEX
  8
Layer_1
 10
-556.274000
 20
7190.569000
  0
VERTEX
  8
Layer_1
 10
-579.657000
 20
7171.083000
  0
VERTEX
  8
Layer_1
 10
-599.922000
 20
7147.701000
  0
VERTEX
  8
Layer_1
 10
-614.731000
 20
7119.641000
  0
VERTEX
  8
Layer_1
 10
-624.864000
 20
7088.465000
  0
VERTEX
  8
Layer_1
 10
-629.540000
 20
7053.390000
  0
VERTEX
  8
Layer_1
 10
-313.874000
 20
7053.390000
  0
VERTEX
  8
Layer_1
 10
-318.550000
 20
7086.126000
  0
VERTEX
  8
Layer_1
 10
-326.345000
 20
7115.744000
  0
VERTEX
  8
Layer_1
 10
-336.477000
 20
7139.906000
  0
VERTEX
  8
Layer_1
 10
-350.507000
 20
7160.171000
  0
VERTEX
  8
Layer_1
 10
-375.448000
 20
7184.334000
  0
VERTEX
  8
Layer_1
 10
-402.728000
 20
7201.481000
  0
VERTEX
  8
Layer_1
 10
-433.905000
 20
7211.613000
  0
VERTEX
  8
Layer_1
 10
-468.979000
 20
7215.511000
  0
VERTEX
  8
Layer_1
 10
-468.979000
 20
7294.232000
  0
VERTEX
  8
Layer_1
 10
-415.978000
 20
7288.776000
  0
VERTEX
  8
Layer_1
 10
-366.875000
 20
7274.747000
  0
VERTEX
  8
Layer_1
 10
-323.227000
 20
7250.585000
  0
VERTEX
  8
Layer_1
 10
-285.035000
 20
7217.069000
  0
VERTEX
  8
Layer_1
 10
-253.079000
 20
7174.201000
  0
VERTEX
  8
Layer_1
 10
-231.255000
 20
7124.318000
  0
VERTEX
  8
Layer_1
 10
-218.005000
 20
7065.861000
  0
VERTEX
  8
Layer_1
 10
-213.328000
 20
7000.390000
  0
VERTEX
  8
Layer_1
 10
-213.328000
 20
6974.669000
  0
VERTEX
  8
Layer_1
 10
-634.217000
 20
6974.669000
  0
VERTEX
  8
Layer_1
 10
-629.540000
 20
6930.242000
  0
VERTEX
  8
Layer_1
 10
-619.408000
 20
6892.050000
  0
VERTEX
  8
Layer_1
 10
-603.040000
 20
6859.314000
  0
VERTEX
  8
Layer_1
 10
-581.995000
 20
6832.034000
  0
VERTEX
  8
Layer_1
 10
-557.054000
 20
6810.210000
  0
VERTEX
  8
Layer_1
 10
-528.995000
 20
6794.622000
  0
VERTEX
  8
Layer_1
 10
-497.818000
 20
6785.269000
  0
VERTEX
  8
Layer_1
 10
-464.302000
 20
6782.931000
  0
VERTEX
  8
Layer_1
 10
-438.581000
 20
6784.489000
  0
VERTEX
  8
Layer_1
 10
-415.199000
 20
6789.166000
  0
VERTEX
  8
Layer_1
 10
-393.375000
 20
6797.740000
  0
VERTEX
  8
Layer_1
 10
-373.889000
 20
6810.210000
  0
VERTEX
  8
Layer_1
 10
-356.742000
 20
6825.799000
  0
VERTEX
  8
Layer_1
 10
-341.154000
 20
6846.064000
  0
VERTEX
  8
Layer_1
 10
-327.124000
 20
6869.447000
  0
VERTEX
  8
Layer_1
 10
-315.433000
 20
6898.285000
  0
VERTEX
  8
Layer_1
 10
-216.446000
 20
6886.594000
  0
VERTEX
  8
Layer_1
 10
-230.475000
 20
6845.284000
  0
VERTEX
  8
Layer_1
 10
-249.961000
 20
6809.431000
  0
VERTEX
  8
Layer_1
 10
-274.123000
 20
6777.475000
  0
VERTEX
  8
Layer_1
 10
-302.962000
 20
6751.754000
  0
VERTEX
  8
Layer_1
 10
-336.477000
 20
6730.709000
  0
VERTEX
  8
Layer_1
 10
-375.448000
 20
6715.900000
  0
VERTEX
  8
Layer_1
 10
-417.537000
 20
6706.547000
  0
VERTEX
  8
Layer_1
 10
-464.302000
 20
6704.209000
  0
VERTEX
  8
Layer_1
 10
-523.539000
 20
6708.106000
  0
VERTEX
  8
Layer_1
 10
-575.760000
 20
6722.915000
  0
VERTEX
  8
Layer_1
 10
-621.746000
 20
6746.298000
  0
VERTEX
  8
Layer_1
 10
-661.497000
 20
6779.813000
  0
VERTEX
  8
Layer_1
 10
-693.453000
 20
6821.902000
  0
VERTEX
  8
Layer_1
 10
-715.277000
 20
6871.005000
  0
VERTEX
  8
Layer_1
 10
-729.306000
 20
6928.683000
  0
VERTEX
  8
Layer_1
 10
-733.203000
 20
6994.154000
  0
VERTEX
  8
Layer_1
 10
-729.306000
 20
7061.185000
  0
VERTEX
  8
Layer_1
 10
-715.277000
 20
7120.421000
  0
VERTEX
  8
Layer_1
 10
-692.673000
 20
7171.863000
  0
VERTEX
  8
Layer_1
 10
-659.938000
 20
7215.511000
  0
VERTEX
  8
Layer_1
 10
-620.967000
 20
7249.026000
  0
VERTEX
  8
Layer_1
 10
-575.760000
 20
7274.747000
  0
SEQEND
  0
ENDSEC
  0
EOF
