  0
SECTION
  2
HEADER
  9
$ACADVER
  1
AC1027
  9
$ACADMAINTVER
 70
     8
  9
$DWGCODEPAGE
  3
ANSI_1252
  9
$REQUIREDVERSIONS
160
                 0
  9
$INSBASE
 10
0.0
 20
0.0
 30
0.0
  9
$EXTMIN
 10
0.0
 20
0.0
 30
0.0
  9
$EXTMAX
 10
153.5
 20
110.0
 30
2.0
  9
$LIMMIN
 10
0.0
 20
0.0
  9
$LIMMAX
 10
420.0
 20
297.0
  9
$ORTHOMODE
 70
     0
  9
$REGENMODE
 70
     1
  9
$FILLMODE
 70
     1
  9
$QTEXTMODE
 70
     0
  9
$MIRRTEXT
 70
     1
  9
$LTSCALE
 40
1.0
  9
$ATTMODE
 70
     1
  9
$TEXTSIZE
 40
0.0
  9
$TRACEWID
 40
1.0
  9
$TEXTSTYLE
  7
Standard
  9
$CLAYER
  8
0
  9
$CELTYPE
  6
ByLayer
  9
$CECOLOR
 62
    18
  9
$CELTSCALE
 40
1.0
  9
$DISPSILH
 70
     0
  9
$DIMSCALE
 40
1.0
  9
$DIMASZ
 40
2.5
  9
$DIMEXO
 40
0.625
  9
$DIMDLI
 40
3.75
  9
$DIMRND
 40
0.0
  9
$DIMDLE
 40
0.0
  9
$DIMEXE
 40
1.25
  9
$DIMTP
 40
0.0
  9
$DIMTM
 40
0.0
  9
$DIMTXT
 40
2.5
  9
$DIMCEN
 40
2.5
  9
$DIMTSZ
 40
0.0
  9
$DIMTOL
 70
     0
  9
$DIMLIM
 70
     0
  9
$DIMTIH
 70
     0
  9
$DIMTOH
 70
     0
  9
$DIMSE1
 70
     0
  9
$DIMSE2
 70
     0
  9
$DIMTAD
 70
     1
  9
$DIMZIN
 70
     8
  9
$DIMBLK
  1

  9
$DIMASO
 70
     1
  9
$DIMSHO
 70
     1
  9
$DIMPOST
  1

  9
$DIMAPOST
  1

  9
$DIMALT
 70
     0
  9
$DIMALTD
 70
     3
  9
$DIMALTF
 40
0.03937
  9
$DIMLFAC
 40
1.0
  9
$DIMTOFL
 70
     1
  9
$DIMTVP
 40
0.0
  9
$DIMTIX
 70
     0
  9
$DIMSOXD
 70
     0
  9
$DIMSAH
 70
     0
  9
$DIMBLK1
  1

  9
$DIMBLK2
  1

  9
$DIMSTYLE
  2
Standard
  9
$DIMCLRD
 70
    18
  9
$DIMCLRE
 70
    18
  9
$DIMCLRT
 70
    18
  9
$DIMTFAC
 40
1.0
  9
$DIMGAP
 40
0.625
  9
$DIMJUST
 70
     0
  9
$DIMSD1
 70
     0
  9
$DIMSD2
 70
     0
  9
$DIMTOLJ
 70
     0
  9
$DIMTZIN
 70
     8
  9
$DIMALTZ
 70
     0
  9
$DIMALTTZ
 70
     0
  9
$DIMUPT
 70
     0
  9
$DIMDEC
 70
     2
  9
$DIMTDEC
 70
     2
  9
$DIMALTU
 70
     2
  9
$DIMALTTD
 70
     3
  9
$DIMTXSTY
  7
Standard
  9
$DIMAUNIT
 70
     0
  9
$DIMADEC
 70
     0
  9
$DIMALTRND
 40
0.0
  9
$DIMAZIN
 70
     0
  9
$DIMDSEP
 70
    44
  9
$DIMATFIT
 70
     0
  9
$DIMFRAC
 70
     0
  9
$DIMLDRBLK
  1

  9
$DIMLUNIT
 70
     2
  9
$DIMLWD
 70
    -2
  9
$DIMLWE
 70
    -2
  9
$DIMTMOVE
 70
     0
  9
$DIMFXL
 40
1.0
  9
$DIMFXLON
 70
     0
  9
$DIMJOGANG
 40
0.7853981633974483
  9
$DIMTFILL
 70
     0
  9
$DIMTFILLCLR
 70
     0
  9
$DIMARCSYM
 70
     0
  9
$DIMLTYPE
  6

  9
$DIMLTEX1
  6

  9
$DIMLTEX2
  6

  9
$DIMTXTDIRECTION
 70
     0
  9
$LUNITS
 70
     2
  9
$LUPREC
 70
     4
  9
$SKETCHINC
 40
1.0
  9
$FILLETRAD
 40
2.5
  9
$AUNITS
 70
     0
  9
$AUPREC
 70
     0
  9
$MENU
  1
.
  9
$ELEVATION
 40
0.0
  9
$PELEVATION
 40
0.0
  9
$THICKNESS
 40
0.0
  9
$LIMCHECK
 70
     0
  9
$CHAMFERA
 40
2.5
  9
$CHAMFERB
 40
2.5
  9
$CHAMFERC
 40
0.0
  9
$CHAMFERD
 40
0.0
  9
$SKPOLY
 70
     0
  9
$TDCREATE
 40
2458009.469646609
  9
$TDUCREATE
 40
2458009.386313275
  9
$TDUPDATE
 40
2458009.469646794
  9
$TDUUPDATE
 40
2458009.386313461
  9
$TDINDWG
 40
0.0000000116
  9
$TDUSRTIMER
 40
0.0000000116
  9
$USRTIMER
 70
     1
  9
$ANGBASE
 50
0.0
  9
$ANGDIR
 70
     0
  9
$PDMODE
 70
     0
  9
$PDSIZE
 40
0.0
  9
$PLINEWID
 40
0.0
  9
$SPLFRAME
 70
     0
  9
$SPLINETYPE
 70
     6
  9
$SPLINESEGS
 70
     8
  9
$HANDSEED
  5
C93
  9
$SURFTAB1
 70
     6
  9
$SURFTAB2
 70
     6
  9
$SURFTYPE
 70
     6
  9
$SURFU
 70
     6
  9
$SURFV
 70
     6
  9
$UCSBASE
  2

  9
$UCSNAME
  2

  9
$UCSORG
 10
0.0
 20
0.0
 30
0.0
  9
$UCSXDIR
 10
1.0
 20
0.0
 30
0.0
  9
$UCSYDIR
 10
0.0
 20
1.0
 30
0.0
  9
$UCSORTHOREF
  2

  9
$UCSORTHOVIEW
 70
     0
  9
$UCSORGTOP
 10
0.0
 20
0.0
 30
0.0
  9
$UCSORGBOTTOM
 10
0.0
 20
0.0
 30
0.0
  9
$UCSORGLEFT
 10
0.0
 20
0.0
 30
0.0
  9
$UCSORGRIGHT
 10
0.0
 20
0.0
 30
0.0
  9
$UCSORGFRONT
 10
0.0
 20
0.0
 30
0.0
  9
$UCSORGBACK
 10
0.0
 20
0.0
 30
0.0
  9
$PUCSBASE
  2

  9
$PUCSNAME
  2

  9
$PUCSORG
 10
0.0
 20
0.0
 30
0.0
  9
$PUCSXDIR
 10
1.0
 20
0.0
 30
0.0
  9
$PUCSYDIR
 10
0.0
 20
1.0
 30
0.0
  9
$PUCSORTHOREF
  2

  9
$PUCSORTHOVIEW
 70
     0
  9
$PUCSORGTOP
 10
0.0
 20
0.0
 30
0.0
  9
$PUCSORGBOTTOM
 10
0.0
 20
0.0
 30
0.0
  9
$PUCSORGLEFT
 10
0.0
 20
0.0
 30
0.0
  9
$PUCSORGRIGHT
 10
0.0
 20
0.0
 30
0.0
  9
$PUCSORGFRONT
 10
0.0
 20
0.0
 30
0.0
  9
$PUCSORGBACK
 10
0.0
 20
0.0
 30
0.0
  9
$USERI1
 70
     0
  9
$USERI2
 70
     0
  9
$USERI3
 70
     0
  9
$USERI4
 70
     0
  9
$USERI5
 70
     0
  9
$USERR1
 40
0.0
  9
$USERR2
 40
0.0
  9
$USERR3
 40
0.0
  9
$USERR4
 40
0.0
  9
$USERR5
 40
0.0
  9
$WORLDVIEW
 70
     1
  9
$SHADEDGE
 70
     3
  9
$SHADEDIF
 70
    70
  9
$TILEMODE
 70
     1
  9
$MAXACTVP
 70
    48
  9
$PINSBASE
 10
0.0
 20
0.0
 30
0.0
  9
$PLIMCHECK
 70
     0
  9
$PEXTMIN
 10
0.0
 20
0.0
 30
0.0
  9
$PEXTMAX
 10
153.5
 20
110.0
 30
2.0
  9
$PLIMMIN
 10
0.0
 20
0.0
  9
$PLIMMAX
 10
420.0
 20
297.0
  9
$UNITMODE
 70
     0
  9
$VISRETAIN
 70
     0
  9
$PLINEGEN
 70
     0
  9
$PSLTSCALE
 70
     1
  9
$TREEDEPTH
 70
  3020
  9
$CMLSTYLE
  2
Standard
  9
$CMLJUST
 70
     0
  9
$CMLSCALE
 40
20.0
  9
$PROXYGRAPHICS
 70
     1
  9
$MEASUREMENT
 70
     1
  9
$CELWEIGHT
370
    -1
  9
$ENDCAPS
280
     0
  9
$JOINSTYLE
280
     0
  9
$LWDISPLAY
290
     0
  9
$INSUNITS
 70
     0
  9
$HYPERLINKBASE
  1

  9
$STYLESHEET
  1

  9
$XEDIT
290
     1
  9
$CEPSNTYPE
380
     0
  9
$PSTYLEMODE
290
     1
  9
$FINGERPRINTGUID
  2
{E2C4B25C-DB39-4727-B750-C3B2638E936B}
  9
$VERSIONGUID
  2
{FAEB1C32-E019-11D5-929B-00C0DF256EC4}
  9
$EXTNAMES
290
     1
  9
$PSVPSCALE
 40
0.0
  9
$OLESTARTUP
290
     0
  9
$SORTENTS
280
   127
  9
$INDEXCTL
280
     0
  9
$HIDETEXT
280
     1
  9
$XCLIPFRAME
280
     2
  9
$HALOGAP
280
     0
  9
$OBSCOLOR
 70
   257
  9
$OBSLTYPE
280
     0
  9
$INTERSECTIONDISPLAY
280
     0
  9
$INTERSECTIONCOLOR
 70
   257
  9
$DIMASSOC
280
     2
  9
$PROJECTNAME
  1

  9
$CAMERADISPLAY
290
     0
  9
$LENSLENGTH
 40
50.0
  9
$CAMERAHEIGHT
 40
0.0
  9
$STEPSPERSEC
 40
2.0
  9
$STEPSIZE
 40
6.0
  9
$3DDWFPREC
 40
2.0
  9
$PSOLWIDTH
 40
0.25
  9
$PSOLHEIGHT
 40
4.0
  9
$LOFTANG1
 40
1.570796326794897
  9
$LOFTANG2
 40
1.570796326794897
  9
$LOFTMAG1
 40
0.0
  9
$LOFTMAG2
 40
0.0
  9
$LOFTPARAM
 70
     7
  9
$LOFTNORMALS
280
     1
  9
$LATITUDE
 40
37.795
  9
$LONGITUDE
 40
-122.394
  9
$NORTHDIRECTION
 40
0.0
  9
$TIMEZONE
 70
 -8000
  9
$LIGHTGLYPHDISPLAY
280
     1
  9
$TILEMODELIGHTSYNCH
280
     1
  9
$CMATERIAL
347
C27
  9
$SOLIDHIST
280
     1
  9
$SHOWHIST
280
     1
  9
$DWFFRAME
280
     2
  9
$DGNFRAME
280
     2
  9
$REALWORLDSCALE
290
     1
  9
$INTERFERECOLOR
 62
   256
  9
$CSHADOW
280
     0
  9
$SHADOWPLANELOCATION
 40
0.0
  0
ENDSEC
  0
SECTION
  2
CLASSES
  0
CLASS
  1
ACDBDICTIONARYWDFLT
  2
AcDbDictionaryWithDefault
  3
ObjectDBX Classes
 90
        0
 91
        4
280
     0
281
     0
  0
CLASS
  1
VISUALSTYLE
  2
AcDbVisualStyle
  3
ObjectDBX Classes
 90
     4095
 91
        4
280
     0
281
     0
  0
CLASS
  1
MATERIAL
  2
AcDbMaterial
  3
ObjectDBX Classes
 90
     1153
 91
        4
280
     0
281
     0
  0
CLASS
  1
SCALE
  2
AcDbScale
  3
ObjectDBX Classes
 90
     1153
 91
        4
280
     0
281
     0
  0
CLASS
  1
SUN
  2
AcDbSun
  3
SCENEOE
 90
     1153
 91
        4
280
     0
281
     0
  0
CLASS
  1
DICTIONARYVAR
  2
AcDbDictionaryVar
  3
ObjectDBX Classes
 90
        0
 91
        4
280
     0
281
     0
  0
ENDSEC
  0
SECTION
  2
TABLES
  0
TABLE
  2
VPORT
  5
BEC
330
0
100
AcDbSymbolTable
 70
     1
  0
VPORT
  5
C0C
330
BEC
100
AcDbSymbolTableRecord
100
AcDbViewportTableRecord
  2
*Active
 70
     0
 10
0.0
 20
0.0
 11
1.0
 21
1.0
 12
10.42990654205607
 22
4.5
 13
0.0
 23
0.0
 14
0.5
 24
0.5
 15
0.5
 25
0.5
 16
0.0
 26
0.0
 36
1.0
 17
0.0
 27
0.0
 37
0.0
 40
9.0
 41
1.972972972850329
 42
50.0
 43
0.0
 44
0.0
 50
0.0
 51
0.0
 71
     0
 72
   100
 73
     1
 74
     3
 75
     0
 76
     0
 77
     0
 78
     0
281
     0
 65
     1
110
0.0
120
0.0
130
0.0
111
1.0
121
0.0
131
0.0
112
0.0
122
1.0
132
0.0
 79
     0
146
0.0
 60
     3
 61
     5
292
     1
282
     1
141
0.0
142
0.0
 63
   250
361
C4C
  0
ENDTAB
  0
TABLE
  2
LTYPE
  5
BE9
330
0
100
AcDbSymbolTable
 70
    19
  0
LTYPE
  5
BF7
330
BE9
100
AcDbSymbolTableRecord
100
AcDbLinetypeTableRecord
  2
ByBlock
 70
     0
  3

 72
    65
 73
     0
 40
0.0
  0
LTYPE
  5
BF8
330
BE9
100
AcDbSymbolTableRecord
100
AcDbLinetypeTableRecord
  2
ByLayer
 70
     0
  3

 72
    65
 73
     0
 40
0.0
  0
LTYPE
  5
BF9
330
BE9
100
AcDbSymbolTableRecord
100
AcDbLinetypeTableRecord
  2
Continuous
 70
     0
  3
Solid line
 72
    65
 73
     0
 40
0.0
  0
LTYPE
  5
C7B
330
BE9
100
AcDbSymbolTableRecord
100
AcDbLinetypeTableRecord
  2
BORDER
 70
     0
  3

 72
    65
 73
     6
 40
42.00000000000001
 49
12.0
 74
     0
 49
-6.0
 74
     0
 49
12.0
 74
     0
 49
-5.95
 74
     0
 49
0.1
 74
     0
 49
-5.95
 74
     0
  0
LTYPE
  5
C7C
330
BE9
100
AcDbSymbolTableRecord
100
AcDbLinetypeTableRecord
  2
BORDER2
 70
     0
  3

 72
    65
 73
     6
 40
21.0
 49
6.0
 74
     0
 49
-3.0
 74
     0
 49
6.0
 74
     0
 49
-2.95
 74
     0
 49
0.1
 74
     0
 49
-2.95
 74
     0
  0
LTYPE
  5
C7D
330
BE9
100
AcDbSymbolTableRecord
100
AcDbLinetypeTableRecord
  2
BORDERX2
 70
     0
  3

 72
    65
 73
     6
 40
84.0
 49
24.0
 74
     0
 49
-12.0
 74
     0
 49
24.0
 74
     0
 49
-11.95
 74
     0
 49
0.1
 74
     0
 49
-11.95
 74
     0
  0
LTYPE
  5
C7E
330
BE9
100
AcDbSymbolTableRecord
100
AcDbLinetypeTableRecord
  2
CENTER
 70
     0
  3

 72
    65
 73
     4
 40
50.0
 49
32.0
 74
     0
 49
-6.0
 74
     0
 49
6.0
 74
     0
 49
-6.0
 74
     0
  0
LTYPE
  5
C7F
330
BE9
100
AcDbSymbolTableRecord
100
AcDbLinetypeTableRecord
  2
CENTER2
 70
     0
  3

 72
    65
 73
     4
 40
25.0
 49
16.0
 74
     0
 49
-3.0
 74
     0
 49
3.0
 74
     0
 49
-3.0
 74
     0
  0
LTYPE
  5
C80
330
BE9
100
AcDbSymbolTableRecord
100
AcDbLinetypeTableRecord
  2
CENTERX2
 70
     0
  3

 72
    65
 73
     4
 40
100.0
 49
64.0
 74
     0
 49
-12.0
 74
     0
 49
12.0
 74
     0
 49
-12.0
 74
     0
  0
LTYPE
  5
C81
330
BE9
100
AcDbSymbolTableRecord
100
AcDbLinetypeTableRecord
  2
DASHDOT
 70
     0
  3

 72
    65
 73
     4
 40
24.0
 49
12.0
 74
     0
 49
-5.95
 74
     0
 49
0.1
 74
     0
 49
-5.95
 74
     0
  0
LTYPE
  5
C82
330
BE9
100
AcDbSymbolTableRecord
100
AcDbLinetypeTableRecord
  2
DASHDOT2
 70
     0
  3

 72
    65
 73
     4
 40
12.0
 49
6.0
 74
     0
 49
-2.95
 74
     0
 49
0.1
 74
     0
 49
-2.95
 74
     0
  0
LTYPE
  5
C83
330
BE9
100
AcDbSymbolTableRecord
100
AcDbLinetypeTableRecord
  2
DASHDOTX2
 70
     0
  3

 72
    65
 73
     4
 40
48.0
 49
24.0
 74
     0
 49
-11.95
 74
     0
 49
0.1
 74
     0
 49
-11.95
 74
     0
  0
LTYPE
  5
C84
330
BE9
100
AcDbSymbolTableRecord
100
AcDbLinetypeTableRecord
  2
DASHED
 70
     0
  3

 72
    65
 73
     2
 40
18.0
 49
12.0
 74
     0
 49
-6.0
 74
     0
  0
LTYPE
  5
C85
330
BE9
100
AcDbSymbolTableRecord
100
AcDbLinetypeTableRecord
  2
DASHED2
 70
     0
  3

 72
    65
 73
     2
 40
9.0
 49
6.0
 74
     0
 49
-3.0
 74
     0
  0
LTYPE
  5
C86
330
BE9
100
AcDbSymbolTableRecord
100
AcDbLinetypeTableRecord
  2
DASHEDX2
 70
     0
  3

 72
    65
 73
     2
 40
36.0
 49
24.0
 74
     0
 49
-12.0
 74
     0
  0
LTYPE
  5
C87
330
BE9
100
AcDbSymbolTableRecord
100
AcDbLinetypeTableRecord
  2
DIVIDE
 70
     0
  3

 72
    65
 73
     6
 40
29.99999999999999
 49
12.0
 74
     0
 49
-5.9
 74
     0
 49
0.15
 74
     0
 49
-5.9
 74
     0
 49
0.15
 74
     0
 49
-5.9
 74
     0
  0
LTYPE
  5
C88
330
BE9
100
AcDbSymbolTableRecord
100
AcDbLinetypeTableRecord
  2
DIVIDE2
 70
     0
  3

 72
    65
 73
     6
 40
15.0
 49
6.0
 74
     0
 49
-2.9
 74
     0
 49
0.15
 74
     0
 49
-2.9
 74
     0
 49
0.15
 74
     0
 49
-2.9
 74
     0
  0
LTYPE
  5
C89
330
BE9
100
AcDbSymbolTableRecord
100
AcDbLinetypeTableRecord
  2
DIVIDEX2
 70
     0
  3

 72
    65
 73
     6
 40
59.99999999999999
 49
24.0
 74
     0
 49
-11.9
 74
     0
 49
0.15
 74
     0
 49
-11.9
 74
     0
 49
0.15
 74
     0
 49
-11.9
 74
     0
  0
LTYPE
  5
C8A
330
BE9
100
AcDbSymbolTableRecord
100
AcDbLinetypeTableRecord
  2
DOT
 70
     0
  3

 72
    65
 73
     2
 40
6.3
 49
0.1
 74
     0
 49
-6.2
 74
     0
  0
LTYPE
  5
C8B
330
BE9
100
AcDbSymbolTableRecord
100
AcDbLinetypeTableRecord
  2
DOT2
 70
     0
  3

 72
    65
 73
     2
 40
3.2
 49
0.1
 74
     0
 49
-3.1
 74
     0
  0
LTYPE
  5
C8C
330
BE9
100
AcDbSymbolTableRecord
100
AcDbLinetypeTableRecord
  2
DOTX2
 70
     0
  3

 72
    65
 73
     2
 40
12.5
 49
0.1
 74
     0
 49
-12.4
 74
     0
  0
ENDTAB
  0
TABLE
  2
LAYER
  5
BE6
330
0
100
AcDbSymbolTable
 70
     1
  0
LAYER
  5
BF4
330
BE6
100
AcDbSymbolTableRecord
100
AcDbLayerTableRecord
  2
0
 70
     0
 62
     7
420
 16777215
  6
Continuous
370
     0
390
BF3
347
C29
348
0
  0
ENDTAB
  0
TABLE
  2
STYLE
  5
BE7
330
0
100
AcDbSymbolTable
 70
     1
  0
STYLE
  5
BF5
330
BE7
100
AcDbSymbolTableRecord
100
AcDbTextStyleTableRecord
  2
Standard
 70
     0
 40
0.0
 41
1.0
 50
0.0
 71
     0
 42
0.0
  3
txt
  4

  0
ENDTAB
  0
TABLE
  2
VIEW
  5
BEA
330
0
100
AcDbSymbolTable
 70
     0
  0
ENDTAB
  0
TABLE
  2
UCS
  5
BEB
330
0
100
AcDbSymbolTable
 70
     0
  0
ENDTAB
  0
TABLE
  2
APPID
  5
BED
330
0
100
AcDbSymbolTable
 70
     2
  0
APPID
  5
BF6
330
BED
100
AcDbSymbolTableRecord
100
AcDbRegAppTableRecord
  2
ACAD
 70
     0
  0
APPID
  5
C4D
330
BED
100
AcDbSymbolTableRecord
100
AcDbRegAppTableRecord
  2
QCAD
 70
     0
  0
ENDTAB
  0
TABLE
  2
DIMSTYLE
  5
BEE
330
0
100
AcDbSymbolTable
 70
     2
100
AcDbDimStyleTable
  0
DIMSTYLE
105
C0A
330
BEE
100
AcDbSymbolTableRecord
100
AcDbDimStyleTableRecord
  2
Standard
 70
     0
178
     0
340
BF5
  0
DIMSTYLE
105
C7A
330
BEE
100
AcDbSymbolTableRecord
100
AcDbDimStyleTableRecord
  2
QCADDimStyle
 70
     0
 41
2.5
 42
0.625
 44
1.25
 73
     0
 77
     1
140
2.5
147
0.625
178
     0
340
BF5
  0
ENDTAB
  0
TABLE
  2
BLOCK_RECORD
  5
BE5
330
0
100
AcDbSymbolTable
 70
     1
  0
BLOCK_RECORD
  5
C02
330
BE5
100
AcDbSymbolTableRecord
100
AcDbBlockTableRecord
  2
*Model_Space
340
C05
 70
     0
280
     1
281
     0
  0
BLOCK_RECORD
  5
BFE
330
BE5
100
AcDbSymbolTableRecord
100
AcDbBlockTableRecord
  2
*Paper_Space
340
C01
 70
     0
280
     1
281
     0
  0
BLOCK_RECORD
  5
C06
330
BE5
100
AcDbSymbolTableRecord
100
AcDbBlockTableRecord
  2
*Paper_Space0
340
C09
 70
     0
280
     1
281
     0
  0
ENDTAB
  0
ENDSEC
  0
SECTION
  2
BLOCKS
  0
BLOCK
  5
C03
330
C02
100
AcDbEntity
  8
0
100
AcDbBlockBegin
  2
*Model_Space
 70
     0
 10
0.0
 20
0.0
 30
0.0
  3
*Model_Space
  1
*Model_Space
  0
ENDBLK
  5
C04
330
C02
100
AcDbEntity
  8
0
100
AcDbBlockEnd
  0
BLOCK
  5
BFF
330
BFE
100
AcDbEntity
 67
     1
  8
0
100
AcDbBlockBegin
  2
*Paper_Space
 70
     0
 10
0.0
 20
0.0
 30
0.0
  3
*Paper_Space
  1
*Paper_Space
  0
ENDBLK
  5
C00
330
BFE
100
AcDbEntity
 67
     1
  8
0
100
AcDbBlockEnd
  0
BLOCK
  5
C07
330
C06
100
AcDbEntity
  8
0
100
AcDbBlockBegin
  2
*Paper_Space0
 70
     0
 10
0.0
 20
0.0
 30
0.0
  3
*Paper_Space0
  1
*Paper_Space0
  0
ENDBLK
  5
C08
330
C06
100
AcDbEntity
  8
0
100
AcDbBlockEnd
  0
ENDSEC
  0
SECTION
  2
ENTITIES
  0
LINE
  5
4C
330
C02
100
AcDbEntity
  8
0
 62
     7
420
 16777215
370
     0
100
AcDbLine
 10
143000.0
 20
110000.0
 30
0.0
 11
154000.0
 21
110000.0
 31
0.0
  0
LINE
  5
4D
330
C02
100
AcDbEntity
  8
0
 62
     7
420
 16777215
370
     0
100
AcDbLine
 10
154000.0
 20
100000.0
 30
0.0
 11
154000.0
 21
110000.0
 31
0.0
  0
LINE
  5
4E
330
C02
100
AcDbEntity
  8
0
 62
     7
420
 16777215
370
     0
100
AcDbLine
 10
154000.0
 20
100000.0
 30
0.0
 11
143000.0
 21
100000.0
 31
0.0
  0
LINE
  5
4F
330
C02
100
AcDbEntity
  8
0
 62
     7
420
 16777215
370
     0
100
AcDbLine
 10
143000.0
 20
110000.0
 30
0.0
 11
143000.0
 21
100000.0
 31
0.0
  0
LINE
  5
484
330
C02
100
AcDbEntity
  8
0
 62
     7
420
 16777215
370
     0
100
AcDbLine
 10
143000.0
 20
95000.0
 30
0.0
 11
154000.0
 21
95000.0
 31
0.0
  0
LINE
  5
485
330
C02
100
AcDbEntity
  8
0
 62
     7
420
 16777215
370
     0
100
AcDbLine
 10
154000.0
 20
85000.0
 30
0.0
 11
154000.0
 21
95000.0
 31
0.0
  0
LINE
  5
486
330
C02
100
AcDbEntity
  8
0
 62
     7
420
 16777215
370
     0
100
AcDbLine
 10
154000.0
 20
85000.0
 30
0.0
 11
143000.0
 21
85000.0
 31
0.0
  0
LINE
  5
487
330
C02
100
AcDbEntity
  8
0
 62
     7
420
 16777215
370
     0
100
AcDbLine
 10
143000.0
 20
95000.0
 30
0.0
 11
143000.0
 21
85000.0
 31
0.0
  0
CIRCLE
  5
488
330
C02
100
AcDbEntity
  8
0
 62
     7
420
 16777215
370
     0
100
AcDbCircle
 10
147690.002
 20
104445.0
 30
0.0
 40
50.0
  0
CIRCLE
  5
489
330
C02
100
AcDbEntity
  8
0
 62
     7
420
 16777215
370
     0
100
AcDbCircle
 10
149039.993
 20
105555.0
 30
0.0
 40
50.0
  0
CIRCLE
  5
48A
330
C02
100
AcDbEntity
  8
0
 62
     7
420
 16777215
370
     0
100
AcDbCircle
 10
148229.996
 20
105555.0
 30
0.0
 40
50.0
  0
CIRCLE
  5
48B
330
C02
100
AcDbEntity
  8
0
 62
     7
420
 16777215
370
     0
100
AcDbCircle
 10
147690.002
 20
105555.0
 30
0.0
 40
50.0
  0
CIRCLE
  5
48C
330
C02
100
AcDbEntity
  8
0
 62
     7
420
 16777215
370
     0
100
AcDbCircle
 10
147690.002
 20
104730.003
 30
0.0
 40
50.0
  0
CIRCLE
  5
48F
330
C02
100
AcDbEntity
  8
0
 62
     7
420
 16777215
370
     0
100
AcDbCircle
 10
148229.996
 20
104730.003
 30
0.0
 40
50.0
  0
CIRCLE
  5
490
330
C02
100
AcDbEntity
  8
0
 62
     7
420
 16777215
370
     0
100
AcDbCircle
 10
148770.004
 20
104730.003
 30
0.0
 40
50.0
  0
CIRCLE
  5
491
330
C02
100
AcDbEntity
  8
0
 62
     7
420
 16777215
370
     0
100
AcDbCircle
 10
149309.998
 20
104730.003
 30
0.0
 40
50.0
  0
CIRCLE
  5
492
330
C02
100
AcDbEntity
  8
0
 62
     7
420
 16777215
370
     0
100
AcDbCircle
 10
147960.007
 20
105000.0
 30
0.0
 40
50.0
  0
CIRCLE
  5
493
330
C02
100
AcDbEntity
  8
0
 62
     7
420
 16777215
370
     0
100
AcDbCircle
 10
148770.004
 20
105000.0
 30
0.0
 40
50.0
  0
CIRCLE
  5
494
330
C02
100
AcDbEntity
  8
0
 62
     7
420
 16777215
370
     0
100
AcDbCircle
 10
149309.998
 20
105000.0
 30
0.0
 40
50.0
  0
CIRCLE
  5
495
330
C02
100
AcDbEntity
  8
0
 62
     7
420
 16777215
370
     0
100
AcDbCircle
 10
147960.007
 20
105269.997
 30
0.0
 40
50.0
  0
CIRCLE
  5
496
330
C02
100
AcDbEntity
  8
0
 62
     7
420
 16777215
370
     0
100
AcDbCircle
 10
148500.0
 20
105269.997
 30
0.0
 40
50.0
  0
CIRCLE
  5
497
330
C02
100
AcDbEntity
  8
0
 62
     7
420
 16777215
370
     0
100
AcDbCircle
 10
149039.993
 20
105269.997
 30
0.0
 40
50.0
  0
CIRCLE
  5
498
330
C02
100
AcDbEntity
  8
0
 62
     7
420
 16777215
370
     0
100
AcDbCircle
 10
148500.0
 20
105000.0
 30
0.0
 40
50.0
  0
ARC
  5
499
330
C02
100
AcDbEntity
  8
0
 62
     7
420
 16777215
370
     0
100
AcDbCircle
 10
148908.005
 20
106004.997
 30
0.0
 40
100.0
100
AcDbArc
 50
180.000005
 51
269.999997
  0
ARC
  5
49A
330
C02
100
AcDbEntity
  8
0
 62
     7
420
 16777215
370
     0
100
AcDbCircle
 10
148908.005
 20
103995.003
 30
0.0
 40
100.0
100
AcDbArc
 50
90.000003
 51
180.000005
  0
ARC
  5
49B
330
C02
100
AcDbEntity
  8
0
 62
     7
420
 16777215
370
     0
100
AcDbCircle
 10
148091.995
 20
103995.003
 30
0.0
 40
100.0
100
AcDbArc
 50
0.0
 51
90.000003
  0
ARC
  5
49C
330
C02
100
AcDbEntity
  8
0
 62
     7
420
 16777215
370
     0
100
AcDbCircle
 10
148091.995
 20
106004.997
 30
0.0
 40
100.0
100
AcDbArc
 50
269.999997
 51
0.0
  0
LINE
  5
49D
330
C02
100
AcDbEntity
  8
0
 62
     7
420
 16777215
370
     0
100
AcDbLine
 10
148345.993
 20
106305.0
 30
0.0
 11
148345.993
 21
106105.003
 31
0.0
  0
ARC
  5
49E
330
C02
100
AcDbEntity
  8
0
 62
     7
420
 16777215
370
     0
100
AcDbCircle
 10
148500.0
 20
107293.068
 30
0.0
 40
1000.0
100
AcDbArc
 50
278.858807
 51
261.141194
  0
LINE
  5
49F
330
C02
100
AcDbEntity
  8
0
 62
     7
420
 16777215
370
     0
100
AcDbLine
 10
148654.007
 20
106105.003
 30
0.0
 11
148654.007
 21
106305.0
 31
0.0
  0
LINE
  5
4A1
330
C02
100
AcDbEntity
  8
0
 62
     7
420
 16777215
370
     0
100
AcDbLine
 10
148654.007
 20
103894.997
 30
0.0
 11
148654.007
 21
103695.0
 31
0.0
  0
ARC
  5
4A2
330
C02
100
AcDbEntity
  8
0
 62
     7
420
 16777215
370
     0
100
AcDbCircle
 10
148500.0
 20
102706.932
 30
0.0
 40
1000.0
100
AcDbArc
 50
98.858806
 51
81.141193
  0
LINE
  5
4A3
330
C02
100
AcDbEntity
  8
0
 62
     7
420
 16777215
370
     0
100
AcDbLine
 10
148345.993
 20
103695.0
 30
0.0
 11
148345.993
 21
103894.997
 31
0.0
  0
CIRCLE
  5
4A6
330
C02
100
AcDbEntity
  8
0
 62
     7
420
 16777215
370
     0
100
AcDbCircle
 10
149309.998
 20
105269.997
 30
0.0
 40
50.0
  0
CIRCLE
  5
4A7
330
C02
100
AcDbEntity
  8
0
 62
     7
420
 16777215
370
     0
100
AcDbCircle
 10
148770.004
 20
105269.997
 30
0.0
 40
50.0
  0
CIRCLE
  5
4A8
330
C02
100
AcDbEntity
  8
0
 62
     7
420
 16777215
370
     0
100
AcDbCircle
 10
148229.996
 20
105269.997
 30
0.0
 40
50.0
  0
CIRCLE
  5
4A9
330
C02
100
AcDbEntity
  8
0
 62
     7
420
 16777215
370
     0
100
AcDbCircle
 10
147690.002
 20
105269.997
 30
0.0
 40
50.0
  0
CIRCLE
  5
4AA
330
C02
100
AcDbEntity
  8
0
 62
     7
420
 16777215
370
     0
100
AcDbCircle
 10
149039.993
 20
105000.0
 30
0.0
 40
50.0
  0
CIRCLE
  5
4AB
330
C02
100
AcDbEntity
  8
0
 62
     7
420
 16777215
370
     0
100
AcDbCircle
 10
148229.996
 20
105000.0
 30
0.0
 40
50.0
  0
CIRCLE
  5
4AC
330
C02
100
AcDbEntity
  8
0
 62
     7
420
 16777215
370
     0
100
AcDbCircle
 10
147690.002
 20
105000.0
 30
0.0
 40
50.0
  0
CIRCLE
  5
4AD
330
C02
100
AcDbEntity
  8
0
 62
     7
420
 16777215
370
     0
100
AcDbCircle
 10
149039.993
 20
104730.003
 30
0.0
 40
50.0
  0
CIRCLE
  5
4AE
330
C02
100
AcDbEntity
  8
0
 62
     7
420
 16777215
370
     0
100
AcDbCircle
 10
148500.0
 20
104730.003
 30
0.0
 40
50.0
  0
CIRCLE
  5
4AF
330
C02
100
AcDbEntity
  8
0
 62
     7
420
 16777215
370
     0
100
AcDbCircle
 10
147960.007
 20
104730.003
 30
0.0
 40
50.0
  0
LINE
  5
4B0
330
C02
100
AcDbEntity
  8
0
 62
     7
420
 16777215
370
     0
100
AcDbLine
 10
149000.0
 20
103849.998
 30
0.0
 11
149000.0
 21
103800.003
 31
0.0
  0
LINE
  5
4B1
330
C02
100
AcDbEntity
  8
0
 62
     7
420
 16777215
370
     0
100
AcDbLine
 10
149000.0
 20
103849.998
 30
0.0
 11
148949.997
 21
103849.998
 31
0.0
  0
LINE
  5
4B2
330
C02
100
AcDbEntity
  8
0
 62
     7
420
 16777215
370
     0
100
AcDbLine
 10
149000.0
 20
103800.003
 30
0.0
 11
149050.003
 21
103800.003
 31
0.0
  0
LINE
  5
4B3
330
C02
100
AcDbEntity
  8
0
 62
     7
420
 16777215
370
     0
100
AcDbLine
 10
148949.997
 20
103900.002
 30
0.0
 11
148949.997
 21
103849.998
 31
0.0
  0
LINE
  5
4B4
330
C02
100
AcDbEntity
  8
0
 62
     7
420
 16777215
370
     0
100
AcDbLine
 10
149050.003
 20
103800.003
 30
0.0
 11
149050.003
 21
103849.998
 31
0.0
  0
LINE
  5
4B5
330
C02
100
AcDbEntity
  8
0
 62
     7
420
 16777215
370
     0
100
AcDbLine
 10
149100.006
 20
103849.998
 30
0.0
 11
149050.003
 21
103849.998
 31
0.0
  0
LINE
  5
4B6
330
C02
100
AcDbEntity
  8
0
 62
     7
420
 16777215
370
     0
100
AcDbLine
 10
149100.006
 20
103849.998
 30
0.0
 11
149100.006
 21
103900.002
 31
0.0
  0
LINE
  5
4B7
330
C02
100
AcDbEntity
  8
0
 62
     7
420
 16777215
370
     0
100
AcDbLine
 10
149050.003
 20
103900.002
 30
0.0
 11
149100.006
 21
103900.002
 31
0.0
  0
LINE
  5
4B8
330
C02
100
AcDbEntity
  8
0
 62
     7
420
 16777215
370
     0
100
AcDbLine
 10
149050.003
 20
103900.002
 30
0.0
 11
149050.003
 21
103949.997
 31
0.0
  0
LINE
  5
4B9
330
C02
100
AcDbEntity
  8
0
 62
     7
420
 16777215
370
     0
100
AcDbLine
 10
149050.003
 20
103949.997
 30
0.0
 11
149000.0
 21
103949.997
 31
0.0
  0
LINE
  5
4BA
330
C02
100
AcDbEntity
  8
0
 62
     7
420
 16777215
370
     0
100
AcDbLine
 10
149000.0
 20
103949.997
 30
0.0
 11
149000.0
 21
103900.002
 31
0.0
  0
LINE
  5
4BB
330
C02
100
AcDbEntity
  8
0
 62
     7
420
 16777215
370
     0
100
AcDbLine
 10
148949.997
 20
103900.002
 30
0.0
 11
149000.0
 21
103900.002
 31
0.0
  0
LINE
  5
4BC
330
C02
100
AcDbEntity
  8
0
 62
     7
420
 16777215
370
     0
100
AcDbLine
 10
147550.003
 20
106250.0
 30
0.0
 11
147550.003
 21
106750.0
 31
0.0
  0
LINE
  5
4BD
330
C02
100
AcDbEntity
  8
0
 62
     7
420
 16777215
370
     0
100
AcDbLine
 10
147550.003
 20
106250.0
 30
0.0
 11
147699.997
 21
106250.0
 31
0.0
  0
LINE
  5
4BE
330
C02
100
AcDbEntity
  8
0
 62
     7
420
 16777215
370
     0
100
AcDbLine
 10
147550.003
 20
106750.0
 30
0.0
 11
147399.994
 21
106750.0
 31
0.0
  0
LINE
  5
4BF
330
C02
100
AcDbEntity
  8
0
 62
     7
420
 16777215
370
     0
100
AcDbLine
 10
147699.997
 20
106250.0
 30
0.0
 11
147475.006
 21
106025.002
 31
0.0
  0
LINE
  5
4C0
330
C02
100
AcDbEntity
  8
0
 62
     7
420
 16777215
370
     0
100
AcDbLine
 10
147399.994
 20
106750.0
 30
0.0
 11
147399.994
 21
106250.0
 31
0.0
  0
LINE
  5
4C1
330
C02
100
AcDbEntity
  8
0
 62
     7
420
 16777215
370
     0
100
AcDbLine
 10
147250.0
 20
106250.0
 30
0.0
 11
147399.994
 21
106250.0
 31
0.0
  0
LINE
  5
4C2
330
C02
100
AcDbEntity
  8
0
 62
     7
420
 16777215
370
     0
100
AcDbLine
 10
147250.0
 20
106250.0
 30
0.0
 11
147475.006
 21
106025.002
 31
0.0
  0
LINE
  5
4C3
330
C02
100
AcDbEntity
  8
0
 62
     7
420
 16777215
370
     0
100
AcDbLine
 10
148000.0
 20
106199.997
 30
0.0
 11
147949.997
 21
106199.997
 31
0.0
  0
LINE
  5
4C4
330
C02
100
AcDbEntity
  8
0
 62
     7
420
 16777215
370
     0
100
AcDbLine
 10
148000.0
 20
106150.002
 30
0.0
 11
148000.0
 21
106199.997
 31
0.0
  0
LINE
  5
4C5
330
C02
100
AcDbEntity
  8
0
 62
     7
420
 16777215
370
     0
100
AcDbLine
 10
147949.997
 20
106199.997
 30
0.0
 11
147949.997
 21
106150.002
 31
0.0
  0
LINE
  5
4C6
330
C02
100
AcDbEntity
  8
0
 62
     7
420
 16777215
370
     0
100
AcDbLine
 10
148000.0
 20
106150.002
 30
0.0
 11
148050.003
 21
106150.002
 31
0.0
  0
LINE
  5
4C7
330
C02
100
AcDbEntity
  8
0
 62
     7
420
 16777215
370
     0
100
AcDbLine
 10
147899.994
 20
106150.002
 30
0.0
 11
147949.997
 21
106150.002
 31
0.0
  0
LINE
  5
4C8
330
C02
100
AcDbEntity
  8
0
 62
     7
420
 16777215
370
     0
100
AcDbLine
 10
147899.994
 20
106150.002
 30
0.0
 11
147899.994
 21
106099.998
 31
0.0
  0
LINE
  5
4C9
330
C02
100
AcDbEntity
  8
0
 62
     7
420
 16777215
370
     0
100
AcDbLine
 10
147949.997
 20
106099.998
 30
0.0
 11
147899.994
 21
106099.998
 31
0.0
  0
LINE
  5
4CA
330
C02
100
AcDbEntity
  8
0
 62
     7
420
 16777215
370
     0
100
AcDbLine
 10
147949.997
 20
106099.998
 30
0.0
 11
147949.997
 21
106050.003
 31
0.0
  0
LINE
  5
4CB
330
C02
100
AcDbEntity
  8
0
 62
     7
420
 16777215
370
     0
100
AcDbLine
 10
147949.997
 20
106050.003
 30
0.0
 11
148000.0
 21
106050.003
 31
0.0
  0
LINE
  5
4CC
330
C02
100
AcDbEntity
  8
0
 62
     7
420
 16777215
370
     0
100
AcDbLine
 10
148000.0
 20
106050.003
 30
0.0
 11
148000.0
 21
106099.998
 31
0.0
  0
LINE
  5
4CD
330
C02
100
AcDbEntity
  8
0
 62
     7
420
 16777215
370
     0
100
AcDbLine
 10
148050.003
 20
106099.998
 30
0.0
 11
148000.0
 21
106099.998
 31
0.0
  0
LINE
  5
4CE
330
C02
100
AcDbEntity
  8
0
 62
     7
420
 16777215
370
     0
100
AcDbLine
 10
148050.003
 20
106099.998
 30
0.0
 11
148050.003
 21
106150.002
 31
0.0
  0
LINE
  5
4CF
330
C02
100
AcDbEntity
  8
0
 62
     7
420
 16777215
370
     0
100
AcDbLine
 10
149449.997
 20
106250.0
 30
0.0
 11
149300.003
 21
106250.0
 31
0.0
  0
LINE
  5
4D0
330
C02
100
AcDbEntity
  8
0
 62
     7
420
 16777215
370
     0
100
AcDbLine
 10
149449.997
 20
106250.0
 30
0.0
 11
149449.997
 21
106750.0
 31
0.0
  0
LINE
  5
4D1
330
C02
100
AcDbEntity
  8
0
 62
     7
420
 16777215
370
     0
100
AcDbLine
 10
149300.003
 20
106250.0
 30
0.0
 11
149524.994
 21
106025.002
 31
0.0
  0
LINE
  5
4D2
330
C02
100
AcDbEntity
  8
0
 62
     7
420
 16777215
370
     0
100
AcDbLine
 10
149449.997
 20
106750.0
 30
0.0
 11
149600.006
 21
106750.0
 31
0.0
  0
LINE
  5
4D3
330
C02
100
AcDbEntity
  8
0
 62
     7
420
 16777215
370
     0
100
AcDbLine
 10
149750.0
 20
106250.0
 30
0.0
 11
149524.994
 21
106025.002
 31
0.0
  0
LINE
  5
4D4
330
C02
100
AcDbEntity
  8
0
 62
     7
420
 16777215
370
     0
100
AcDbLine
 10
149750.0
 20
106250.0
 30
0.0
 11
149600.006
 21
106250.0
 31
0.0
  0
LINE
  5
4D5
330
C02
100
AcDbEntity
  8
0
 62
     7
420
 16777215
370
     0
100
AcDbLine
 10
149600.006
 20
106750.0
 30
0.0
 11
149600.006
 21
106250.0
 31
0.0
  0
CIRCLE
  5
4D6
330
C02
100
AcDbEntity
  8
0
 62
     7
420
 16777215
370
     0
100
AcDbCircle
 10
148500.0
 20
105555.0
 30
0.0
 40
50.0
  0
CIRCLE
  5
4D7
330
C02
100
AcDbEntity
  8
0
 62
     7
420
 16777215
370
     0
100
AcDbCircle
 10
147960.007
 20
105555.0
 30
0.0
 40
50.0
  0
CIRCLE
  5
4D8
330
C02
100
AcDbEntity
  8
0
 62
     7
420
 16777215
370
     0
100
AcDbCircle
 10
148770.004
 20
105555.0
 30
0.0
 40
50.0
  0
CIRCLE
  5
4D9
330
C02
100
AcDbEntity
  8
0
 62
     7
420
 16777215
370
     0
100
AcDbCircle
 10
149309.998
 20
105555.0
 30
0.0
 40
50.0
  0
CIRCLE
  5
4DA
330
C02
100
AcDbEntity
  8
0
 62
     7
420
 16777215
370
     0
100
AcDbCircle
 10
147960.007
 20
104445.0
 30
0.0
 40
50.0
  0
CIRCLE
  5
4DB
330
C02
100
AcDbEntity
  8
0
 62
     7
420
 16777215
370
     0
100
AcDbCircle
 10
148500.0
 20
104445.0
 30
0.0
 40
50.0
  0
CIRCLE
  5
4DC
330
C02
100
AcDbEntity
  8
0
 62
     7
420
 16777215
370
     0
100
AcDbCircle
 10
149039.993
 20
104445.0
 30
0.0
 40
50.0
  0
LINE
  5
4DE
330
C02
100
AcDbEntity
  8
0
 62
     7
420
 16777215
370
     0
100
AcDbLine
 10
148707.993
 20
103894.997
 30
0.0
 11
148654.007
 21
103894.997
 31
0.0
  0
ARC
  5
4DF
330
C02
100
AcDbEntity
  8
0
 62
     7
420
 16777215
370
     0
100
AcDbCircle
 10
148707.993
 20
103995.003
 30
0.0
 40
100.0
100
AcDbArc
 50
269.999997
 51
0.0
  0
LINE
  5
4E1
330
C02
100
AcDbEntity
  8
0
 62
     7
420
 16777215
370
     0
100
AcDbLine
 10
148345.993
 20
106105.003
 30
0.0
 11
148292.007
 21
106105.003
 31
0.0
  0
ARC
  5
4E2
330
C02
100
AcDbEntity
  8
0
 62
     7
420
 16777215
370
     0
100
AcDbCircle
 10
148292.007
 20
106004.997
 30
0.0
 40
100.0
100
AcDbArc
 50
90.000003
 51
180.000005
  0
LINE
  5
4E4
330
C02
100
AcDbEntity
  8
0
 62
     7
420
 16777215
370
     0
100
AcDbLine
 10
148707.993
 20
106105.003
 30
0.0
 11
148654.007
 21
106105.003
 31
0.0
  0
ARC
  5
4E5
330
C02
100
AcDbEntity
  8
0
 62
     7
420
 16777215
370
     0
100
AcDbCircle
 10
148707.993
 20
106004.997
 30
0.0
 40
100.0
100
AcDbArc
 50
0.0
 51
90.000003
  0
LINE
  5
4E7
330
C02
100
AcDbEntity
  8
0
 62
     7
420
 16777215
370
     0
100
AcDbLine
 10
148345.993
 20
103894.997
 30
0.0
 11
148292.007
 21
103894.997
 31
0.0
  0
ARC
  5
4E8
330
C02
100
AcDbEntity
  8
0
 62
     7
420
 16777215
370
     0
100
AcDbCircle
 10
148292.007
 20
103995.003
 30
0.0
 40
100.0
100
AcDbArc
 50
180.000005
 51
269.999997
  0
LINE
  5
4E9
330
C02
100
AcDbEntity
  8
0
 62
     7
420
 16777215
370
     0
100
AcDbLine
 10
149330.002
 20
105904.999
 30
0.0
 11
148908.005
 21
105904.999
 31
0.0
  0
ARC
  5
4EA
330
C02
100
AcDbEntity
  8
0
 62
     7
420
 16777215
370
     0
100
AcDbCircle
 10
149330.002
 20
105705.002
 30
0.0
 40
200.0
100
AcDbArc
 50
0.0
 51
90.000003
  0
LINE
  5
4EB
330
C02
100
AcDbEntity
  8
0
 62
     7
420
 16777215
370
     0
100
AcDbLine
 10
148091.995
 20
104095.001
 30
0.0
 11
147669.998
 21
104095.001
 31
0.0
  0
ARC
  5
4EC
330
C02
100
AcDbEntity
  8
0
 62
     7
420
 16777215
370
     0
100
AcDbCircle
 10
147669.998
 20
104294.998
 30
0.0
 40
200.0
100
AcDbArc
 50
180.000005
 51
269.999997
  0
LINE
  5
4ED
330
C02
100
AcDbEntity
  8
0
 62
     7
420
 16777215
370
     0
100
AcDbLine
 10
148091.995
 20
105904.999
 30
0.0
 11
147669.998
 21
105904.999
 31
0.0
  0
LINE
  5
4EE
330
C02
100
AcDbEntity
  8
0
 62
     7
420
 16777215
370
     0
100
AcDbLine
 10
147470.001
 20
104294.998
 30
0.0
 11
147470.001
 21
104692.2238975536
 31
0.0
  0
ARC
  5
4EF
330
C02
100
AcDbEntity
  8
0
 62
     7
420
 16777215
370
     0
100
AcDbCircle
 10
147669.998
 20
105705.002
 30
0.0
 40
200.0
100
AcDbArc
 50
90.000003
 51
180.000005
  0
ARC
  5
4F0
330
C02
100
AcDbEntity
  8
0
 62
     7
420
 16777215
370
     0
100
AcDbCircle
 10
149330.002
 20
104294.998
 30
0.0
 40
200.0
100
AcDbArc
 50
269.999997
 51
0.0
  0
LINE
  5
4F1
330
C02
100
AcDbEntity
  8
0
 62
     7
420
 16777215
370
     0
100
AcDbLine
 10
149330.002
 20
104095.001
 30
0.0
 11
148908.005
 21
104095.001
 31
0.0
  0
LINE
  5
4F2
330
C02
100
AcDbEntity
  8
0
 62
     7
420
 16777215
370
     0
100
AcDbLine
 10
149529.999
 20
104294.998
 30
0.0
 11
149529.999
 21
104691.7762966063
 31
0.0
  0
CIRCLE
  5
4F3
330
C02
100
AcDbEntity
  8
0
 62
     7
420
 16777215
370
     0
100
AcDbCircle
 10
149309.998
 20
104445.0
 30
0.0
 40
50.0
  0
CIRCLE
  5
4F5
330
C02
100
AcDbEntity
  8
0
 62
     7
420
 16777215
370
     0
100
AcDbCircle
 10
148770.004
 20
104445.0
 30
0.0
 40
50.0
  0
CIRCLE
  5
4F6
330
C02
100
AcDbEntity
  8
0
 62
     7
420
 16777215
370
     0
100
AcDbCircle
 10
148229.996
 20
104445.0
 30
0.0
 40
50.0
  0
LINE
  5
56D
330
C02
100
AcDbEntity
  8
0
 62
     7
420
 16777215
370
     0
100
AcDbLine
 10
143000.0
 20
80000.0
 30
0.0
 11
154000.0
 21
80000.0
 31
0.0
  0
LINE
  5
571
330
C02
100
AcDbEntity
  8
0
 62
     7
420
 16777215
370
     0
100
AcDbLine
 10
154000.0
 20
70000.0
 30
0.0
 11
143000.0
 21
70000.0
 31
0.0
  0
LINE
  5
5EA
330
C02
100
AcDbEntity
  8
0
 62
     7
420
 16777215
370
     0
100
AcDbLine
 10
143000.0
 20
65000.0
 30
0.0
 11
154000.0
 21
65000.0
 31
0.0
  0
LINE
  5
5F0
330
C02
100
AcDbEntity
  8
0
 62
     7
420
 16777215
370
     0
100
AcDbLine
 10
154000.0
 20
55000.0
 30
0.0
 11
143000.0
 21
55000.0
 31
0.0
  0
LINE
  5
67C
330
C02
100
AcDbEntity
  8
0
 62
     7
420
 16777215
370
     0
100
AcDbLine
 10
149000.0
 20
88849.99799999999
 30
0.0
 11
149000.0
 21
88800.003
 31
0.0
  0
LINE
  5
67D
330
C02
100
AcDbEntity
  8
0
 62
     7
420
 16777215
370
     0
100
AcDbLine
 10
149000.0
 20
88849.99799999999
 30
0.0
 11
148949.997
 21
88849.99799999999
 31
0.0
  0
LINE
  5
67E
330
C02
100
AcDbEntity
  8
0
 62
     7
420
 16777215
370
     0
100
AcDbLine
 10
149000.0
 20
88800.003
 30
0.0
 11
149050.003
 21
88800.003
 31
0.0
  0
LINE
  5
67F
330
C02
100
AcDbEntity
  8
0
 62
     7
420
 16777215
370
     0
100
AcDbLine
 10
148949.997
 20
88900.00200000001
 30
0.0
 11
148949.997
 21
88849.99799999999
 31
0.0
  0
LINE
  5
680
330
C02
100
AcDbEntity
  8
0
 62
     7
420
 16777215
370
     0
100
AcDbLine
 10
149050.003
 20
88800.003
 30
0.0
 11
149050.003
 21
88849.99799999999
 31
0.0
  0
LINE
  5
681
330
C02
100
AcDbEntity
  8
0
 62
     7
420
 16777215
370
     0
100
AcDbLine
 10
149100.006
 20
88849.99799999999
 30
0.0
 11
149050.003
 21
88849.99799999999
 31
0.0
  0
LINE
  5
682
330
C02
100
AcDbEntity
  8
0
 62
     7
420
 16777215
370
     0
100
AcDbLine
 10
149100.006
 20
88849.99799999999
 30
0.0
 11
149100.006
 21
88900.00200000001
 31
0.0
  0
LINE
  5
683
330
C02
100
AcDbEntity
  8
0
 62
     7
420
 16777215
370
     0
100
AcDbLine
 10
149050.003
 20
88900.00200000001
 30
0.0
 11
149100.006
 21
88900.00200000001
 31
0.0
  0
LINE
  5
684
330
C02
100
AcDbEntity
  8
0
 62
     7
420
 16777215
370
     0
100
AcDbLine
 10
149050.003
 20
88900.00200000001
 30
0.0
 11
149050.003
 21
88949.997
 31
0.0
  0
LINE
  5
685
330
C02
100
AcDbEntity
  8
0
 62
     7
420
 16777215
370
     0
100
AcDbLine
 10
149050.003
 20
88949.997
 30
0.0
 11
149000.0
 21
88949.997
 31
0.0
  0
LINE
  5
686
330
C02
100
AcDbEntity
  8
0
 62
     7
420
 16777215
370
     0
100
AcDbLine
 10
149000.0
 20
88949.997
 30
0.0
 11
149000.0
 21
88900.00200000001
 31
0.0
  0
LINE
  5
687
330
C02
100
AcDbEntity
  8
0
 62
     7
420
 16777215
370
     0
100
AcDbLine
 10
148949.997
 20
88900.00200000001
 30
0.0
 11
149000.0
 21
88900.00200000001
 31
0.0
  0
LINE
  5
688
330
C02
100
AcDbEntity
  8
0
 62
     7
420
 16777215
370
     0
100
AcDbLine
 10
147550.003
 20
91250.0
 30
0.0
 11
147550.003
 21
91750.0
 31
0.0
  0
LINE
  5
689
330
C02
100
AcDbEntity
  8
0
 62
     7
420
 16777215
370
     0
100
AcDbLine
 10
147550.003
 20
91250.0
 30
0.0
 11
147699.997
 21
91250.0
 31
0.0
  0
LINE
  5
68A
330
C02
100
AcDbEntity
  8
0
 62
     7
420
 16777215
370
     0
100
AcDbLine
 10
147550.003
 20
91750.0
 30
0.0
 11
147399.994
 21
91750.0
 31
0.0
  0
LINE
  5
68B
330
C02
100
AcDbEntity
  8
0
 62
     7
420
 16777215
370
     0
100
AcDbLine
 10
147699.997
 20
91250.0
 30
0.0
 11
147475.006
 21
91025.00200000001
 31
0.0
  0
LINE
  5
68C
330
C02
100
AcDbEntity
  8
0
 62
     7
420
 16777215
370
     0
100
AcDbLine
 10
147399.994
 20
91750.0
 30
0.0
 11
147399.994
 21
91250.0
 31
0.0
  0
LINE
  5
68D
330
C02
100
AcDbEntity
  8
0
 62
     7
420
 16777215
370
     0
100
AcDbLine
 10
147250.0
 20
91250.0
 30
0.0
 11
147399.994
 21
91250.0
 31
0.0
  0
LINE
  5
68E
330
C02
100
AcDbEntity
  8
0
 62
     7
420
 16777215
370
     0
100
AcDbLine
 10
147250.0
 20
91250.0
 30
0.0
 11
147475.006
 21
91025.00200000001
 31
0.0
  0
LINE
  5
68F
330
C02
100
AcDbEntity
  8
0
 62
     7
420
 16777215
370
     0
100
AcDbLine
 10
148000.0
 20
91199.997
 30
0.0
 11
147949.997
 21
91199.997
 31
0.0
  0
LINE
  5
690
330
C02
100
AcDbEntity
  8
0
 62
     7
420
 16777215
370
     0
100
AcDbLine
 10
148000.0
 20
91150.00200000001
 30
0.0
 11
148000.0
 21
91199.997
 31
0.0
  0
LINE
  5
691
330
C02
100
AcDbEntity
  8
0
 62
     7
420
 16777215
370
     0
100
AcDbLine
 10
147949.997
 20
91199.997
 30
0.0
 11
147949.997
 21
91150.00200000001
 31
0.0
  0
LINE
  5
692
330
C02
100
AcDbEntity
  8
0
 62
     7
420
 16777215
370
     0
100
AcDbLine
 10
148000.0
 20
91150.00200000001
 30
0.0
 11
148050.003
 21
91150.00200000001
 31
0.0
  0
LINE
  5
693
330
C02
100
AcDbEntity
  8
0
 62
     7
420
 16777215
370
     0
100
AcDbLine
 10
147899.994
 20
91150.00200000001
 30
0.0
 11
147949.997
 21
91150.00200000001
 31
0.0
  0
LINE
  5
694
330
C02
100
AcDbEntity
  8
0
 62
     7
420
 16777215
370
     0
100
AcDbLine
 10
147899.994
 20
91150.00200000001
 30
0.0
 11
147899.994
 21
91099.99799999999
 31
0.0
  0
LINE
  5
695
330
C02
100
AcDbEntity
  8
0
 62
     7
420
 16777215
370
     0
100
AcDbLine
 10
147949.997
 20
91099.99799999999
 30
0.0
 11
147899.994
 21
91099.99799999999
 31
0.0
  0
LINE
  5
696
330
C02
100
AcDbEntity
  8
0
 62
     7
420
 16777215
370
     0
100
AcDbLine
 10
147949.997
 20
91099.99799999999
 30
0.0
 11
147949.997
 21
91050.003
 31
0.0
  0
LINE
  5
697
330
C02
100
AcDbEntity
  8
0
 62
     7
420
 16777215
370
     0
100
AcDbLine
 10
147949.997
 20
91050.003
 30
0.0
 11
148000.0
 21
91050.003
 31
0.0
  0
LINE
  5
698
330
C02
100
AcDbEntity
  8
0
 62
     7
420
 16777215
370
     0
100
AcDbLine
 10
148000.0
 20
91050.003
 30
0.0
 11
148000.0
 21
91099.99799999999
 31
0.0
  0
LINE
  5
699
330
C02
100
AcDbEntity
  8
0
 62
     7
420
 16777215
370
     0
100
AcDbLine
 10
148050.003
 20
91099.99799999999
 30
0.0
 11
148000.0
 21
91099.99799999999
 31
0.0
  0
LINE
  5
69A
330
C02
100
AcDbEntity
  8
0
 62
     7
420
 16777215
370
     0
100
AcDbLine
 10
148050.003
 20
91099.99799999999
 30
0.0
 11
148050.003
 21
91150.00200000001
 31
0.0
  0
LINE
  5
69B
330
C02
100
AcDbEntity
  8
0
 62
     7
420
 16777215
370
     0
100
AcDbLine
 10
149449.997
 20
91250.0
 30
0.0
 11
149300.003
 21
91250.0
 31
0.0
  0
LINE
  5
69C
330
C02
100
AcDbEntity
  8
0
 62
     7
420
 16777215
370
     0
100
AcDbLine
 10
149449.997
 20
91250.0
 30
0.0
 11
149449.997
 21
91750.0
 31
0.0
  0
LINE
  5
69D
330
C02
100
AcDbEntity
  8
0
 62
     7
420
 16777215
370
     0
100
AcDbLine
 10
149300.003
 20
91250.0
 30
0.0
 11
149524.994
 21
91025.00200000001
 31
0.0
  0
LINE
  5
69E
330
C02
100
AcDbEntity
  8
0
 62
     7
420
 16777215
370
     0
100
AcDbLine
 10
149449.997
 20
91750.0
 30
0.0
 11
149600.006
 21
91750.0
 31
0.0
  0
LINE
  5
69F
330
C02
100
AcDbEntity
  8
0
 62
     7
420
 16777215
370
     0
100
AcDbLine
 10
149750.0
 20
91250.0
 30
0.0
 11
149524.994
 21
91025.00200000001
 31
0.0
  0
LINE
  5
6A0
330
C02
100
AcDbEntity
  8
0
 62
     7
420
 16777215
370
     0
100
AcDbLine
 10
149750.0
 20
91250.0
 30
0.0
 11
149600.006
 21
91250.0
 31
0.0
  0
LINE
  5
6A1
330
C02
100
AcDbEntity
  8
0
 62
     7
420
 16777215
370
     0
100
AcDbLine
 10
149600.006
 20
91750.0
 30
0.0
 11
149600.006
 21
91250.0
 31
0.0
  0
CIRCLE
  5
6A2
330
C02
100
AcDbEntity
  8
0
 62
     7
420
 16777215
370
     0
100
AcDbCircle
 10
148500.0
 20
90555.0
 30
0.0
 40
50.0
  0
CIRCLE
  5
6A3
330
C02
100
AcDbEntity
  8
0
 62
     7
420
 16777215
370
     0
100
AcDbCircle
 10
147960.007
 20
90555.0
 30
0.0
 40
50.0
  0
CIRCLE
  5
6A4
330
C02
100
AcDbEntity
  8
0
 62
     7
420
 16777215
370
     0
100
AcDbCircle
 10
148770.004
 20
90555.0
 30
0.0
 40
50.0
  0
CIRCLE
  5
6A5
330
C02
100
AcDbEntity
  8
0
 62
     7
420
 16777215
370
     0
100
AcDbCircle
 10
149309.998
 20
90555.0
 30
0.0
 40
50.0
  0
CIRCLE
  5
6A6
330
C02
100
AcDbEntity
  8
0
 62
     7
420
 16777215
370
     0
100
AcDbCircle
 10
147960.007
 20
89445.0
 30
0.0
 40
50.0
  0
CIRCLE
  5
6A7
330
C02
100
AcDbEntity
  8
0
 62
     7
420
 16777215
370
     0
100
AcDbCircle
 10
148500.0
 20
89445.0
 30
0.0
 40
50.0
  0
CIRCLE
  5
6A8
330
C02
100
AcDbEntity
  8
0
 62
     7
420
 16777215
370
     0
100
AcDbCircle
 10
149039.993
 20
89445.0
 30
0.0
 40
50.0
  0
LINE
  5
6AA
330
C02
100
AcDbEntity
  8
0
 62
     7
420
 16777215
370
     0
100
AcDbLine
 10
148707.993
 20
88894.997
 30
0.0
 11
148654.007
 21
88894.997
 31
0.0
  0
ARC
  5
6AB
330
C02
100
AcDbEntity
  8
0
 62
     7
420
 16777215
370
     0
100
AcDbCircle
 10
148707.993
 20
88995.003
 30
0.0
 40
100.0
100
AcDbArc
 50
269.999997
 51
0.0
  0
LINE
  5
6AD
330
C02
100
AcDbEntity
  8
0
 62
     7
420
 16777215
370
     0
100
AcDbLine
 10
148345.993
 20
91105.003
 30
0.0
 11
148292.007
 21
91105.003
 31
0.0
  0
ARC
  5
6AE
330
C02
100
AcDbEntity
  8
0
 62
     7
420
 16777215
370
     0
100
AcDbCircle
 10
148292.007
 20
91004.997
 30
0.0
 40
100.0
100
AcDbArc
 50
90.000003
 51
180.000005
  0
LINE
  5
6B0
330
C02
100
AcDbEntity
  8
0
 62
     7
420
 16777215
370
     0
100
AcDbLine
 10
148707.993
 20
91105.003
 30
0.0
 11
148654.007
 21
91105.003
 31
0.0
  0
ARC
  5
6B1
330
C02
100
AcDbEntity
  8
0
 62
     7
420
 16777215
370
     0
100
AcDbCircle
 10
148707.993
 20
91004.997
 30
0.0
 40
100.0
100
AcDbArc
 50
0.0
 51
90.000003
  0
LINE
  5
6B3
330
C02
100
AcDbEntity
  8
0
 62
     7
420
 16777215
370
     0
100
AcDbLine
 10
148345.993
 20
88894.997
 30
0.0
 11
148292.007
 21
88894.997
 31
0.0
  0
ARC
  5
6B4
330
C02
100
AcDbEntity
  8
0
 62
     7
420
 16777215
370
     0
100
AcDbCircle
 10
148292.007
 20
88995.003
 30
0.0
 40
100.0
100
AcDbArc
 50
180.000005
 51
269.999997
  0
LINE
  5
6B5
330
C02
100
AcDbEntity
  8
0
 62
     7
420
 16777215
370
     0
100
AcDbLine
 10
149330.002
 20
90904.99900000001
 30
0.0
 11
148908.005
 21
90904.99900000001
 31
0.0
  0
ARC
  5
6B6
330
C02
100
AcDbEntity
  8
0
 62
     7
420
 16777215
370
     0
100
AcDbCircle
 10
149330.002
 20
90705.002
 30
0.0
 40
200.0
100
AcDbArc
 50
0.0
 51
90.000003
  0
LINE
  5
6B7
330
C02
100
AcDbEntity
  8
0
 62
     7
420
 16777215
370
     0
100
AcDbLine
 10
148091.995
 20
89095.00099999999
 30
0.0
 11
147669.998
 21
89095.00099999999
 31
0.0
  0
ARC
  5
6B8
330
C02
100
AcDbEntity
  8
0
 62
     7
420
 16777215
370
     0
100
AcDbCircle
 10
147669.998
 20
89294.998
 30
0.0
 40
200.0
100
AcDbArc
 50
180.000005
 51
269.999997
  0
LINE
  5
6B9
330
C02
100
AcDbEntity
  8
0
 62
     7
420
 16777215
370
     0
100
AcDbLine
 10
148091.995
 20
90904.99900000001
 30
0.0
 11
147669.998
 21
90904.99900000001
 31
0.0
  0
ARC
  5
6BB
330
C02
100
AcDbEntity
  8
0
 62
     7
420
 16777215
370
     0
100
AcDbCircle
 10
147669.998
 20
90705.002
 30
0.0
 40
200.0
100
AcDbArc
 50
90.000003
 51
180.000005
  0
ARC
  5
6BC
330
C02
100
AcDbEntity
  8
0
 62
     7
420
 16777215
370
     0
100
AcDbCircle
 10
149330.002
 20
89294.998
 30
0.0
 40
200.0
100
AcDbArc
 50
269.999997
 51
0.0
  0
LINE
  5
6BD
330
C02
100
AcDbEntity
  8
0
 62
     7
420
 16777215
370
     0
100
AcDbLine
 10
149330.002
 20
89095.00099999999
 30
0.0
 11
148908.005
 21
89095.00099999999
 31
0.0
  0
LINE
  5
6BE
330
C02
100
AcDbEntity
  8
0
 62
     7
420
 16777215
370
     0
100
AcDbLine
 10
149529.999
 20
90404.999
 30
0.0
 11
149529.999
 21
90705.002
 31
0.0
  0
CIRCLE
  5
6BF
330
C02
100
AcDbEntity
  8
0
 62
     7
420
 16777215
370
     0
100
AcDbCircle
 10
149309.998
 20
89445.0
 30
0.0
 40
50.0
  0
CIRCLE
  5
6C1
330
C02
100
AcDbEntity
  8
0
 62
     7
420
 16777215
370
     0
100
AcDbCircle
 10
148770.004
 20
89445.0
 30
0.0
 40
50.0
  0
CIRCLE
  5
6C2
330
C02
100
AcDbEntity
  8
0
 62
     7
420
 16777215
370
     0
100
AcDbCircle
 10
148229.996
 20
89445.0
 30
0.0
 40
50.0
  0
CIRCLE
  5
6C3
330
C02
100
AcDbEntity
  8
0
 62
     7
420
 16777215
370
     0
100
AcDbCircle
 10
147690.002
 20
89445.0
 30
0.0
 40
50.0
  0
CIRCLE
  5
6C4
330
C02
100
AcDbEntity
  8
0
 62
     7
420
 16777215
370
     0
100
AcDbCircle
 10
149039.993
 20
90555.0
 30
0.0
 40
50.0
  0
CIRCLE
  5
6C5
330
C02
100
AcDbEntity
  8
0
 62
     7
420
 16777215
370
     0
100
AcDbCircle
 10
148229.996
 20
90555.0
 30
0.0
 40
50.0
  0
CIRCLE
  5
6C6
330
C02
100
AcDbEntity
  8
0
 62
     7
420
 16777215
370
     0
100
AcDbCircle
 10
147690.002
 20
90555.0
 30
0.0
 40
50.0
  0
LINE
  5
6C8
330
C02
100
AcDbEntity
  8
0
 62
     7
420
 16777215
370
     0
100
AcDbLine
 10
147470.001
 20
90404.99900000001
 30
0.0
 11
149529.999
 21
90404.99900000001
 31
0.0
  0
LINE
  5
6C9
330
C02
100
AcDbEntity
  8
0
 62
     7
420
 16777215
370
     0
100
AcDbLine
 10
149529.999
 20
89595.00099999999
 30
0.0
 11
147470.001
 21
89595.00099999999
 31
0.0
  0
ARC
  5
6D4
330
C02
100
AcDbEntity
  8
0
 62
     7
420
 16777215
370
     0
100
AcDbCircle
 10
148908.005
 20
91004.997
 30
0.0
 40
100.0
100
AcDbArc
 50
180.000005
 51
269.999997
  0
ARC
  5
6D5
330
C02
100
AcDbEntity
  8
0
 62
     7
420
 16777215
370
     0
100
AcDbCircle
 10
148908.005
 20
88995.003
 30
0.0
 40
100.0
100
AcDbArc
 50
90.000003
 51
180.000005
  0
ARC
  5
6D6
330
C02
100
AcDbEntity
  8
0
 62
     7
420
 16777215
370
     0
100
AcDbCircle
 10
148091.995
 20
88995.003
 30
0.0
 40
100.0
100
AcDbArc
 50
0.0
 51
90.000003
  0
ARC
  5
6D7
330
C02
100
AcDbEntity
  8
0
 62
     7
420
 16777215
370
     0
100
AcDbCircle
 10
148091.995
 20
91004.997
 30
0.0
 40
100.0
100
AcDbArc
 50
269.999997
 51
0.0
  0
LINE
  5
6D8
330
C02
100
AcDbEntity
  8
0
 62
     7
420
 16777215
370
     0
100
AcDbLine
 10
148345.993
 20
91305.0
 30
0.0
 11
148345.993
 21
91105.003
 31
0.0
  0
ARC
  5
6D9
330
C02
100
AcDbEntity
  8
0
 62
     7
420
 16777215
370
     0
100
AcDbCircle
 10
148500.0
 20
92293.068
 30
0.0
 40
1000.0
100
AcDbArc
 50
278.858807
 51
261.141194
  0
LINE
  5
6DA
330
C02
100
AcDbEntity
  8
0
 62
     7
420
 16777215
370
     0
100
AcDbLine
 10
148654.007
 20
91105.003
 30
0.0
 11
148654.007
 21
91305.0
 31
0.0
  0
LINE
  5
6DC
330
C02
100
AcDbEntity
  8
0
 62
     7
420
 16777215
370
     0
100
AcDbLine
 10
148654.007
 20
88894.997
 30
0.0
 11
148654.007
 21
88695.0
 31
0.0
  0
ARC
  5
6DD
330
C02
100
AcDbEntity
  8
0
 62
     7
420
 16777215
370
     0
100
AcDbCircle
 10
148500.0
 20
87706.932
 30
0.0
 40
1000.0
100
AcDbArc
 50
98.858806
 51
81.141193
  0
LINE
  5
6DE
330
C02
100
AcDbEntity
  8
0
 62
     7
420
 16777215
370
     0
100
AcDbLine
 10
148345.993
 20
88695.0
 30
0.0
 11
148345.993
 21
88894.997
 31
0.0
  0
LINE
  5
6EB
330
C02
100
AcDbEntity
  8
0
 62
     7
420
 16777215
370
     0
100
AcDbLine
 10
149000.0
 20
73849.99799999999
 30
0.0
 11
149000.0
 21
73800.003
 31
0.0
  0
LINE
  5
6EC
330
C02
100
AcDbEntity
  8
0
 62
     7
420
 16777215
370
     0
100
AcDbLine
 10
149000.0
 20
73849.99799999999
 30
0.0
 11
148949.997
 21
73849.99799999999
 31
0.0
  0
LINE
  5
6ED
330
C02
100
AcDbEntity
  8
0
 62
     7
420
 16777215
370
     0
100
AcDbLine
 10
149000.0
 20
73800.003
 30
0.0
 11
149050.003
 21
73800.003
 31
0.0
  0
LINE
  5
6EE
330
C02
100
AcDbEntity
  8
0
 62
     7
420
 16777215
370
     0
100
AcDbLine
 10
148949.997
 20
73900.00200000001
 30
0.0
 11
148949.997
 21
73849.99799999999
 31
0.0
  0
LINE
  5
6EF
330
C02
100
AcDbEntity
  8
0
 62
     7
420
 16777215
370
     0
100
AcDbLine
 10
149050.003
 20
73800.003
 30
0.0
 11
149050.003
 21
73849.99799999999
 31
0.0
  0
LINE
  5
6F0
330
C02
100
AcDbEntity
  8
0
 62
     7
420
 16777215
370
     0
100
AcDbLine
 10
149100.006
 20
73849.99799999999
 30
0.0
 11
149050.003
 21
73849.99799999999
 31
0.0
  0
LINE
  5
6F1
330
C02
100
AcDbEntity
  8
0
 62
     7
420
 16777215
370
     0
100
AcDbLine
 10
149100.006
 20
73849.99799999999
 30
0.0
 11
149100.006
 21
73900.00200000001
 31
0.0
  0
LINE
  5
6F2
330
C02
100
AcDbEntity
  8
0
 62
     7
420
 16777215
370
     0
100
AcDbLine
 10
149050.003
 20
73900.00200000001
 30
0.0
 11
149100.006
 21
73900.00200000001
 31
0.0
  0
LINE
  5
6F3
330
C02
100
AcDbEntity
  8
0
 62
     7
420
 16777215
370
     0
100
AcDbLine
 10
149050.003
 20
73900.00200000001
 30
0.0
 11
149050.003
 21
73949.997
 31
0.0
  0
LINE
  5
6F4
330
C02
100
AcDbEntity
  8
0
 62
     7
420
 16777215
370
     0
100
AcDbLine
 10
149050.003
 20
73949.997
 30
0.0
 11
149000.0
 21
73949.997
 31
0.0
  0
LINE
  5
6F5
330
C02
100
AcDbEntity
  8
0
 62
     7
420
 16777215
370
     0
100
AcDbLine
 10
149000.0
 20
73949.997
 30
0.0
 11
149000.0
 21
73900.00200000001
 31
0.0
  0
LINE
  5
6F6
330
C02
100
AcDbEntity
  8
0
 62
     7
420
 16777215
370
     0
100
AcDbLine
 10
148949.997
 20
73900.00200000001
 30
0.0
 11
149000.0
 21
73900.00200000001
 31
0.0
  0
LINE
  5
6F7
330
C02
100
AcDbEntity
  8
0
 62
     7
420
 16777215
370
     0
100
AcDbLine
 10
147550.003
 20
76250.0
 30
0.0
 11
147550.003
 21
76750.0
 31
0.0
  0
LINE
  5
6F8
330
C02
100
AcDbEntity
  8
0
 62
     7
420
 16777215
370
     0
100
AcDbLine
 10
147550.003
 20
76250.0
 30
0.0
 11
147699.997
 21
76250.0
 31
0.0
  0
LINE
  5
6F9
330
C02
100
AcDbEntity
  8
0
 62
     7
420
 16777215
370
     0
100
AcDbLine
 10
147550.003
 20
76750.0
 30
0.0
 11
147399.994
 21
76750.0
 31
0.0
  0
LINE
  5
6FA
330
C02
100
AcDbEntity
  8
0
 62
     7
420
 16777215
370
     0
100
AcDbLine
 10
147699.997
 20
76250.0
 30
0.0
 11
147475.006
 21
76025.00200000001
 31
0.0
  0
LINE
  5
6FB
330
C02
100
AcDbEntity
  8
0
 62
     7
420
 16777215
370
     0
100
AcDbLine
 10
147399.994
 20
76750.0
 30
0.0
 11
147399.994
 21
76250.0
 31
0.0
  0
LINE
  5
6FC
330
C02
100
AcDbEntity
  8
0
 62
     7
420
 16777215
370
     0
100
AcDbLine
 10
147250.0
 20
76250.0
 30
0.0
 11
147399.994
 21
76250.0
 31
0.0
  0
LINE
  5
6FD
330
C02
100
AcDbEntity
  8
0
 62
     7
420
 16777215
370
     0
100
AcDbLine
 10
147250.0
 20
76250.0
 30
0.0
 11
147475.006
 21
76025.00200000001
 31
0.0
  0
LINE
  5
6FE
330
C02
100
AcDbEntity
  8
0
 62
     7
420
 16777215
370
     0
100
AcDbLine
 10
148000.0
 20
76199.997
 30
0.0
 11
147949.997
 21
76199.997
 31
0.0
  0
LINE
  5
6FF
330
C02
100
AcDbEntity
  8
0
 62
     7
420
 16777215
370
     0
100
AcDbLine
 10
148000.0
 20
76150.00200000001
 30
0.0
 11
148000.0
 21
76199.997
 31
0.0
  0
LINE
  5
700
330
C02
100
AcDbEntity
  8
0
 62
     7
420
 16777215
370
     0
100
AcDbLine
 10
147949.997
 20
76199.997
 30
0.0
 11
147949.997
 21
76150.00200000001
 31
0.0
  0
LINE
  5
701
330
C02
100
AcDbEntity
  8
0
 62
     7
420
 16777215
370
     0
100
AcDbLine
 10
148000.0
 20
76150.00200000001
 30
0.0
 11
148050.003
 21
76150.00200000001
 31
0.0
  0
LINE
  5
702
330
C02
100
AcDbEntity
  8
0
 62
     7
420
 16777215
370
     0
100
AcDbLine
 10
147899.994
 20
76150.00200000001
 30
0.0
 11
147949.997
 21
76150.00200000001
 31
0.0
  0
LINE
  5
703
330
C02
100
AcDbEntity
  8
0
 62
     7
420
 16777215
370
     0
100
AcDbLine
 10
147899.994
 20
76150.00200000001
 30
0.0
 11
147899.994
 21
76099.99799999999
 31
0.0
  0
LINE
  5
704
330
C02
100
AcDbEntity
  8
0
 62
     7
420
 16777215
370
     0
100
AcDbLine
 10
147949.997
 20
76099.99799999999
 30
0.0
 11
147899.994
 21
76099.99799999999
 31
0.0
  0
LINE
  5
705
330
C02
100
AcDbEntity
  8
0
 62
     7
420
 16777215
370
     0
100
AcDbLine
 10
147949.997
 20
76099.99799999999
 30
0.0
 11
147949.997
 21
76050.003
 31
0.0
  0
LINE
  5
706
330
C02
100
AcDbEntity
  8
0
 62
     7
420
 16777215
370
     0
100
AcDbLine
 10
147949.997
 20
76050.003
 30
0.0
 11
148000.0
 21
76050.003
 31
0.0
  0
LINE
  5
707
330
C02
100
AcDbEntity
  8
0
 62
     7
420
 16777215
370
     0
100
AcDbLine
 10
148000.0
 20
76050.003
 30
0.0
 11
148000.0
 21
76099.99799999999
 31
0.0
  0
LINE
  5
708
330
C02
100
AcDbEntity
  8
0
 62
     7
420
 16777215
370
     0
100
AcDbLine
 10
148050.003
 20
76099.99799999999
 30
0.0
 11
148000.0
 21
76099.99799999999
 31
0.0
  0
LINE
  5
709
330
C02
100
AcDbEntity
  8
0
 62
     7
420
 16777215
370
     0
100
AcDbLine
 10
148050.003
 20
76099.99799999999
 30
0.0
 11
148050.003
 21
76150.00200000001
 31
0.0
  0
LINE
  5
70A
330
C02
100
AcDbEntity
  8
0
 62
     7
420
 16777215
370
     0
100
AcDbLine
 10
149449.997
 20
76250.0
 30
0.0
 11
149300.003
 21
76250.0
 31
0.0
  0
LINE
  5
70B
330
C02
100
AcDbEntity
  8
0
 62
     7
420
 16777215
370
     0
100
AcDbLine
 10
149449.997
 20
76250.0
 30
0.0
 11
149449.997
 21
76750.0
 31
0.0
  0
LINE
  5
70C
330
C02
100
AcDbEntity
  8
0
 62
     7
420
 16777215
370
     0
100
AcDbLine
 10
149300.003
 20
76250.0
 30
0.0
 11
149524.994
 21
76025.00200000001
 31
0.0
  0
LINE
  5
70D
330
C02
100
AcDbEntity
  8
0
 62
     7
420
 16777215
370
     0
100
AcDbLine
 10
149449.997
 20
76750.0
 30
0.0
 11
149600.006
 21
76750.0
 31
0.0
  0
LINE
  5
70E
330
C02
100
AcDbEntity
  8
0
 62
     7
420
 16777215
370
     0
100
AcDbLine
 10
149750.0
 20
76250.0
 30
0.0
 11
149524.994
 21
76025.00200000001
 31
0.0
  0
LINE
  5
70F
330
C02
100
AcDbEntity
  8
0
 62
     7
420
 16777215
370
     0
100
AcDbLine
 10
149750.0
 20
76250.0
 30
0.0
 11
149600.006
 21
76250.0
 31
0.0
  0
LINE
  5
710
330
C02
100
AcDbEntity
  8
0
 62
     7
420
 16777215
370
     0
100
AcDbLine
 10
149600.006
 20
76750.0
 30
0.0
 11
149600.006
 21
76250.0
 31
0.0
  0
LINE
  5
719
330
C02
100
AcDbEntity
  8
0
 62
     7
420
 16777215
370
     0
100
AcDbLine
 10
148707.993
 20
73894.997
 30
0.0
 11
148654.007
 21
73894.997
 31
0.0
  0
ARC
  5
71A
330
C02
100
AcDbEntity
  8
0
 62
     7
420
 16777215
370
     0
100
AcDbCircle
 10
148707.993
 20
73995.003
 30
0.0
 40
100.0
100
AcDbArc
 50
269.999997
 51
0.0
  0
LINE
  5
71C
330
C02
100
AcDbEntity
  8
0
 62
     7
420
 16777215
370
     0
100
AcDbLine
 10
148345.993
 20
76105.003
 30
0.0
 11
148292.007
 21
76105.003
 31
0.0
  0
ARC
  5
71D
330
C02
100
AcDbEntity
  8
0
 62
     7
420
 16777215
370
     0
100
AcDbCircle
 10
148292.007
 20
76004.997
 30
0.0
 40
100.0
100
AcDbArc
 50
90.000003
 51
180.000005
  0
LINE
  5
71F
330
C02
100
AcDbEntity
  8
0
 62
     7
420
 16777215
370
     0
100
AcDbLine
 10
148707.993
 20
76105.003
 30
0.0
 11
148654.007
 21
76105.003
 31
0.0
  0
ARC
  5
720
330
C02
100
AcDbEntity
  8
0
 62
     7
420
 16777215
370
     0
100
AcDbCircle
 10
148707.993
 20
76004.997
 30
0.0
 40
100.0
100
AcDbArc
 50
0.0
 51
90.000003
  0
LINE
  5
722
330
C02
100
AcDbEntity
  8
0
 62
     7
420
 16777215
370
     0
100
AcDbLine
 10
148345.993
 20
73894.997
 30
0.0
 11
148292.007
 21
73894.997
 31
0.0
  0
ARC
  5
723
330
C02
100
AcDbEntity
  8
0
 62
     7
420
 16777215
370
     0
100
AcDbCircle
 10
148292.007
 20
73995.003
 30
0.0
 40
100.0
100
AcDbArc
 50
180.000005
 51
269.999997
  0
LINE
  5
724
330
C02
100
AcDbEntity
  8
0
 62
     7
420
 16777215
370
     0
100
AcDbLine
 10
149330.002
 20
75904.99900000001
 30
0.0
 11
148908.005
 21
75904.99900000001
 31
0.0
  0
ARC
  5
725
330
C02
100
AcDbEntity
  8
0
 62
     7
420
 16777215
370
     0
100
AcDbCircle
 10
149330.002
 20
75705.002
 30
0.0
 40
200.0
100
AcDbArc
 50
0.0
 51
90.000003
  0
LINE
  5
726
330
C02
100
AcDbEntity
  8
0
 62
     7
420
 16777215
370
     0
100
AcDbLine
 10
148091.995
 20
74095.00099999999
 30
0.0
 11
147669.998
 21
74095.00099999999
 31
0.0
  0
ARC
  5
727
330
C02
100
AcDbEntity
  8
0
 62
     7
420
 16777215
370
     0
100
AcDbCircle
 10
147669.998
 20
74294.998
 30
0.0
 40
200.0
100
AcDbArc
 50
180.000005
 51
269.999997
  0
LINE
  5
728
330
C02
100
AcDbEntity
  8
0
 62
     7
420
 16777215
370
     0
100
AcDbLine
 10
148091.995
 20
75904.99900000001
 30
0.0
 11
147669.998
 21
75904.99900000001
 31
0.0
  0
ARC
  5
72A
330
C02
100
AcDbEntity
  8
0
 62
     7
420
 16777215
370
     0
100
AcDbCircle
 10
147669.998
 20
75705.002
 30
0.0
 40
200.0
100
AcDbArc
 50
90.000003
 51
180.000005
  0
ARC
  5
72B
330
C02
100
AcDbEntity
  8
0
 62
     7
420
 16777215
370
     0
100
AcDbCircle
 10
149330.002
 20
74294.998
 30
0.0
 40
200.0
100
AcDbArc
 50
269.999997
 51
0.0
  0
LINE
  5
72C
330
C02
100
AcDbEntity
  8
0
 62
     7
420
 16777215
370
     0
100
AcDbLine
 10
149330.002
 20
74095.00099999999
 30
0.0
 11
148908.005
 21
74095.00099999999
 31
0.0
  0
LINE
  5
72F
330
C02
100
AcDbEntity
  8
0
 62
     7
420
 16777215
370
     0
100
AcDbLine
 10
149529.999
 20
74345.00099999999
 30
0.0
 11
147470.001
 21
74345.00099999999
 31
0.0
  0
ARC
  5
743
330
C02
100
AcDbEntity
  8
0
 62
     7
420
 16777215
370
     0
100
AcDbCircle
 10
148908.005
 20
76004.997
 30
0.0
 40
100.0
100
AcDbArc
 50
180.000005
 51
269.999997
  0
ARC
  5
744
330
C02
100
AcDbEntity
  8
0
 62
     7
420
 16777215
370
     0
100
AcDbCircle
 10
148908.005
 20
73995.003
 30
0.0
 40
100.0
100
AcDbArc
 50
90.000003
 51
180.000005
  0
ARC
  5
745
330
C02
100
AcDbEntity
  8
0
 62
     7
420
 16777215
370
     0
100
AcDbCircle
 10
148091.995
 20
73995.003
 30
0.0
 40
100.0
100
AcDbArc
 50
0.0
 51
90.000003
  0
ARC
  5
746
330
C02
100
AcDbEntity
  8
0
 62
     7
420
 16777215
370
     0
100
AcDbCircle
 10
148091.995
 20
76004.997
 30
0.0
 40
100.0
100
AcDbArc
 50
269.999997
 51
0.0
  0
LINE
  5
747
330
C02
100
AcDbEntity
  8
0
 62
     7
420
 16777215
370
     0
100
AcDbLine
 10
148345.993
 20
76305.0
 30
0.0
 11
148345.993
 21
76105.003
 31
0.0
  0
ARC
  5
748
330
C02
100
AcDbEntity
  8
0
 62
     7
420
 16777215
370
     0
100
AcDbCircle
 10
148500.0
 20
77293.068
 30
0.0
 40
1000.0
100
AcDbArc
 50
278.858807
 51
261.141194
  0
LINE
  5
749
330
C02
100
AcDbEntity
  8
0
 62
     7
420
 16777215
370
     0
100
AcDbLine
 10
148654.007
 20
76105.003
 30
0.0
 11
148654.007
 21
76305.0
 31
0.0
  0
LINE
  5
74B
330
C02
100
AcDbEntity
  8
0
 62
     7
420
 16777215
370
     0
100
AcDbLine
 10
148654.007
 20
73894.997
 30
0.0
 11
148654.007
 21
73695.0
 31
0.0
  0
ARC
  5
74C
330
C02
100
AcDbEntity
  8
0
 62
     7
420
 16777215
370
     0
100
AcDbCircle
 10
148500.0
 20
72706.932
 30
0.0
 40
1000.0
100
AcDbArc
 50
98.858806
 51
81.141193
  0
LINE
  5
74D
330
C02
100
AcDbEntity
  8
0
 62
     7
420
 16777215
370
     0
100
AcDbLine
 10
148345.993
 20
73695.0
 30
0.0
 11
148345.993
 21
73894.997
 31
0.0
  0
LINE
  5
74F
330
C02
100
AcDbEntity
  8
0
 62
     7
420
 16777215
370
     0
100
AcDbLine
 10
149529.999
 20
75654.99900000001
 30
0.0
 11
147470.001
 21
75654.99900000001
 31
0.0
  0
LINE
  5
75A
330
C02
100
AcDbEntity
  8
0
 62
     7
420
 16777215
370
     0
100
AcDbLine
 10
149000.0
 20
58849.998
 30
0.0
 11
149000.0
 21
58800.003
 31
0.0
  0
LINE
  5
75B
330
C02
100
AcDbEntity
  8
0
 62
     7
420
 16777215
370
     0
100
AcDbLine
 10
149000.0
 20
58849.998
 30
0.0
 11
148949.997
 21
58849.998
 31
0.0
  0
LINE
  5
75C
330
C02
100
AcDbEntity
  8
0
 62
     7
420
 16777215
370
     0
100
AcDbLine
 10
149000.0
 20
58800.003
 30
0.0
 11
149050.003
 21
58800.003
 31
0.0
  0
LINE
  5
75D
330
C02
100
AcDbEntity
  8
0
 62
     7
420
 16777215
370
     0
100
AcDbLine
 10
148949.997
 20
58900.002
 30
0.0
 11
148949.997
 21
58849.998
 31
0.0
  0
LINE
  5
75E
330
C02
100
AcDbEntity
  8
0
 62
     7
420
 16777215
370
     0
100
AcDbLine
 10
149050.003
 20
58800.003
 30
0.0
 11
149050.003
 21
58849.998
 31
0.0
  0
LINE
  5
75F
330
C02
100
AcDbEntity
  8
0
 62
     7
420
 16777215
370
     0
100
AcDbLine
 10
149100.006
 20
58849.998
 30
0.0
 11
149050.003
 21
58849.998
 31
0.0
  0
LINE
  5
760
330
C02
100
AcDbEntity
  8
0
 62
     7
420
 16777215
370
     0
100
AcDbLine
 10
149100.006
 20
58849.998
 30
0.0
 11
149100.006
 21
58900.002
 31
0.0
  0
LINE
  5
761
330
C02
100
AcDbEntity
  8
0
 62
     7
420
 16777215
370
     0
100
AcDbLine
 10
149050.003
 20
58900.002
 30
0.0
 11
149100.006
 21
58900.002
 31
0.0
  0
LINE
  5
762
330
C02
100
AcDbEntity
  8
0
 62
     7
420
 16777215
370
     0
100
AcDbLine
 10
149050.003
 20
58900.002
 30
0.0
 11
149050.003
 21
58949.997
 31
0.0
  0
LINE
  5
763
330
C02
100
AcDbEntity
  8
0
 62
     7
420
 16777215
370
     0
100
AcDbLine
 10
149050.003
 20
58949.997
 30
0.0
 11
149000.0
 21
58949.997
 31
0.0
  0
LINE
  5
764
330
C02
100
AcDbEntity
  8
0
 62
     7
420
 16777215
370
     0
100
AcDbLine
 10
149000.0
 20
58949.997
 30
0.0
 11
149000.0
 21
58900.002
 31
0.0
  0
LINE
  5
765
330
C02
100
AcDbEntity
  8
0
 62
     7
420
 16777215
370
     0
100
AcDbLine
 10
148949.997
 20
58900.002
 30
0.0
 11
149000.0
 21
58900.002
 31
0.0
  0
LINE
  5
766
330
C02
100
AcDbEntity
  8
0
 62
     7
420
 16777215
370
     0
100
AcDbLine
 10
147550.003
 20
61250.0
 30
0.0
 11
147550.003
 21
61750.0
 31
0.0
  0
LINE
  5
767
330
C02
100
AcDbEntity
  8
0
 62
     7
420
 16777215
370
     0
100
AcDbLine
 10
147550.003
 20
61250.0
 30
0.0
 11
147699.997
 21
61250.0
 31
0.0
  0
LINE
  5
768
330
C02
100
AcDbEntity
  8
0
 62
     7
420
 16777215
370
     0
100
AcDbLine
 10
147550.003
 20
61750.0
 30
0.0
 11
147399.994
 21
61750.0
 31
0.0
  0
LINE
  5
769
330
C02
100
AcDbEntity
  8
0
 62
     7
420
 16777215
370
     0
100
AcDbLine
 10
147699.997
 20
61250.0
 30
0.0
 11
147475.006
 21
61025.002
 31
0.0
  0
LINE
  5
76A
330
C02
100
AcDbEntity
  8
0
 62
     7
420
 16777215
370
     0
100
AcDbLine
 10
147399.994
 20
61750.0
 30
0.0
 11
147399.994
 21
61250.0
 31
0.0
  0
LINE
  5
76B
330
C02
100
AcDbEntity
  8
0
 62
     7
420
 16777215
370
     0
100
AcDbLine
 10
147250.0
 20
61250.0
 30
0.0
 11
147399.994
 21
61250.0
 31
0.0
  0
LINE
  5
76C
330
C02
100
AcDbEntity
  8
0
 62
     7
420
 16777215
370
     0
100
AcDbLine
 10
147250.0
 20
61250.0
 30
0.0
 11
147475.006
 21
61025.002
 31
0.0
  0
LINE
  5
76D
330
C02
100
AcDbEntity
  8
0
 62
     7
420
 16777215
370
     0
100
AcDbLine
 10
148000.0
 20
61199.997
 30
0.0
 11
147949.997
 21
61199.997
 31
0.0
  0
LINE
  5
76E
330
C02
100
AcDbEntity
  8
0
 62
     7
420
 16777215
370
     0
100
AcDbLine
 10
148000.0
 20
61150.002
 30
0.0
 11
148000.0
 21
61199.997
 31
0.0
  0
LINE
  5
76F
330
C02
100
AcDbEntity
  8
0
 62
     7
420
 16777215
370
     0
100
AcDbLine
 10
147949.997
 20
61199.997
 30
0.0
 11
147949.997
 21
61150.002
 31
0.0
  0
LINE
  5
770
330
C02
100
AcDbEntity
  8
0
 62
     7
420
 16777215
370
     0
100
AcDbLine
 10
148000.0
 20
61150.002
 30
0.0
 11
148050.003
 21
61150.002
 31
0.0
  0
LINE
  5
771
330
C02
100
AcDbEntity
  8
0
 62
     7
420
 16777215
370
     0
100
AcDbLine
 10
147899.994
 20
61150.002
 30
0.0
 11
147949.997
 21
61150.002
 31
0.0
  0
LINE
  5
772
330
C02
100
AcDbEntity
  8
0
 62
     7
420
 16777215
370
     0
100
AcDbLine
 10
147899.994
 20
61150.002
 30
0.0
 11
147899.994
 21
61099.998
 31
0.0
  0
LINE
  5
773
330
C02
100
AcDbEntity
  8
0
 62
     7
420
 16777215
370
     0
100
AcDbLine
 10
147949.997
 20
61099.998
 30
0.0
 11
147899.994
 21
61099.998
 31
0.0
  0
LINE
  5
774
330
C02
100
AcDbEntity
  8
0
 62
     7
420
 16777215
370
     0
100
AcDbLine
 10
147949.997
 20
61099.998
 30
0.0
 11
147949.997
 21
61050.003
 31
0.0
  0
LINE
  5
775
330
C02
100
AcDbEntity
  8
0
 62
     7
420
 16777215
370
     0
100
AcDbLine
 10
147949.997
 20
61050.003
 30
0.0
 11
148000.0
 21
61050.003
 31
0.0
  0
LINE
  5
776
330
C02
100
AcDbEntity
  8
0
 62
     7
420
 16777215
370
     0
100
AcDbLine
 10
148000.0
 20
61050.003
 30
0.0
 11
148000.0
 21
61099.998
 31
0.0
  0
LINE
  5
777
330
C02
100
AcDbEntity
  8
0
 62
     7
420
 16777215
370
     0
100
AcDbLine
 10
148050.003
 20
61099.998
 30
0.0
 11
148000.0
 21
61099.998
 31
0.0
  0
LINE
  5
778
330
C02
100
AcDbEntity
  8
0
 62
     7
420
 16777215
370
     0
100
AcDbLine
 10
148050.003
 20
61099.998
 30
0.0
 11
148050.003
 21
61150.002
 31
0.0
  0
LINE
  5
779
330
C02
100
AcDbEntity
  8
0
 62
     7
420
 16777215
370
     0
100
AcDbLine
 10
149449.997
 20
61250.0
 30
0.0
 11
149300.003
 21
61250.0
 31
0.0
  0
LINE
  5
77A
330
C02
100
AcDbEntity
  8
0
 62
     7
420
 16777215
370
     0
100
AcDbLine
 10
149449.997
 20
61250.0
 30
0.0
 11
149449.997
 21
61750.0
 31
0.0
  0
LINE
  5
77B
330
C02
100
AcDbEntity
  8
0
 62
     7
420
 16777215
370
     0
100
AcDbLine
 10
149300.003
 20
61250.0
 30
0.0
 11
149524.994
 21
61025.002
 31
0.0
  0
LINE
  5
77C
330
C02
100
AcDbEntity
  8
0
 62
     7
420
 16777215
370
     0
100
AcDbLine
 10
149449.997
 20
61750.0
 30
0.0
 11
149600.006
 21
61750.0
 31
0.0
  0
LINE
  5
77D
330
C02
100
AcDbEntity
  8
0
 62
     7
420
 16777215
370
     0
100
AcDbLine
 10
149750.0
 20
61250.0
 30
0.0
 11
149524.994
 21
61025.002
 31
0.0
  0
LINE
  5
77E
330
C02
100
AcDbEntity
  8
0
 62
     7
420
 16777215
370
     0
100
AcDbLine
 10
149750.0
 20
61250.0
 30
0.0
 11
149600.006
 21
61250.0
 31
0.0
  0
LINE
  5
77F
330
C02
100
AcDbEntity
  8
0
 62
     7
420
 16777215
370
     0
100
AcDbLine
 10
149600.006
 20
61750.0
 30
0.0
 11
149600.006
 21
61250.0
 31
0.0
  0
LINE
  5
787
330
C02
100
AcDbEntity
  8
0
 62
     7
420
 16777215
370
     0
100
AcDbLine
 10
148807.999
 20
58995.003
 30
0.0
 11
148807.999
 21
59095.001
 31
0.0
  0
LINE
  5
788
330
C02
100
AcDbEntity
  8
0
 62
     7
420
 16777215
370
     0
100
AcDbLine
 10
148707.993
 20
58894.997
 30
0.0
 11
148654.007
 21
58894.997
 31
0.0
  0
ARC
  5
789
330
C02
100
AcDbEntity
  8
0
 62
     7
420
 16777215
370
     0
100
AcDbCircle
 10
148707.993
 20
58995.003
 30
0.0
 40
100.0
100
AcDbArc
 50
269.999997
 51
0.0
  0
LINE
  5
78A
330
C02
100
AcDbEntity
  8
0
 62
     7
420
 16777215
370
     0
100
AcDbLine
 10
148192.001
 20
61004.997
 30
0.0
 11
148192.001
 21
60904.999
 31
0.0
  0
LINE
  5
78B
330
C02
100
AcDbEntity
  8
0
 62
     7
420
 16777215
370
     0
100
AcDbLine
 10
148345.993
 20
61105.003
 30
0.0
 11
148292.007
 21
61105.003
 31
0.0
  0
ARC
  5
78C
330
C02
100
AcDbEntity
  8
0
 62
     7
420
 16777215
370
     0
100
AcDbCircle
 10
148292.007
 20
61004.997
 30
0.0
 40
100.0
100
AcDbArc
 50
90.000003
 51
180.000005
  0
LINE
  5
78D
330
C02
100
AcDbEntity
  8
0
 62
     7
420
 16777215
370
     0
100
AcDbLine
 10
148807.999
 20
60904.999
 30
0.0
 11
148807.999
 21
61004.997
 31
0.0
  0
LINE
  5
78E
330
C02
100
AcDbEntity
  8
0
 62
     7
420
 16777215
370
     0
100
AcDbLine
 10
148707.993
 20
61105.003
 30
0.0
 11
148654.007
 21
61105.003
 31
0.0
  0
ARC
  5
78F
330
C02
100
AcDbEntity
  8
0
 62
     7
420
 16777215
370
     0
100
AcDbCircle
 10
148707.993
 20
61004.997
 30
0.0
 40
100.0
100
AcDbArc
 50
0.0
 51
90.000003
  0
LINE
  5
790
330
C02
100
AcDbEntity
  8
0
 62
     7
420
 16777215
370
     0
100
AcDbLine
 10
148192.001
 20
59095.001
 30
0.0
 11
148192.001
 21
58995.003
 31
0.0
  0
LINE
  5
791
330
C02
100
AcDbEntity
  8
0
 62
     7
420
 16777215
370
     0
100
AcDbLine
 10
148345.993
 20
58894.997
 30
0.0
 11
148292.007
 21
58894.997
 31
0.0
  0
ARC
  5
792
330
C02
100
AcDbEntity
  8
0
 62
     7
420
 16777215
370
     0
100
AcDbCircle
 10
148292.007
 20
58995.003
 30
0.0
 40
100.0
100
AcDbArc
 50
180.000005
 51
269.999997
  0
LINE
  5
7B6
330
C02
100
AcDbEntity
  8
0
 62
     7
420
 16777215
370
     0
100
AcDbLine
 10
148345.993
 20
61305.00000000001
 30
0.0
 11
148345.993
 21
61105.003
 31
0.0
  0
ARC
  5
7B7
330
C02
100
AcDbEntity
  8
0
 62
     7
420
 16777215
370
     0
100
AcDbCircle
 10
148500.0
 20
62293.06800000001
 30
0.0
 40
1000.0
100
AcDbArc
 50
278.858807
 51
261.141194
  0
LINE
  5
7B8
330
C02
100
AcDbEntity
  8
0
 62
     7
420
 16777215
370
     0
100
AcDbLine
 10
148654.007
 20
61105.003
 30
0.0
 11
148654.007
 21
61305.00000000001
 31
0.0
  0
LINE
  5
7B9
330
C02
100
AcDbEntity
  8
0
 62
     7
420
 16777215
370
     0
100
AcDbLine
 10
148807.999
 20
60904.999
 30
0.0
 11
148192.001
 21
60904.999
 31
0.0
  0
LINE
  5
7BA
330
C02
100
AcDbEntity
  8
0
 62
     7
420
 16777215
370
     0
100
AcDbLine
 10
148654.007
 20
58894.997
 30
0.0
 11
148654.007
 21
58694.99999999999
 31
0.0
  0
ARC
  5
7BB
330
C02
100
AcDbEntity
  8
0
 62
     7
420
 16777215
370
     0
100
AcDbCircle
 10
148500.0
 20
57706.93199999999
 30
0.0
 40
1000.0
100
AcDbArc
 50
98.858806
 51
81.141193
  0
LINE
  5
7BC
330
C02
100
AcDbEntity
  8
0
 62
     7
420
 16777215
370
     0
100
AcDbLine
 10
148345.993
 20
58694.99999999999
 30
0.0
 11
148345.993
 21
58894.997
 31
0.0
  0
LINE
  5
7BD
330
C02
100
AcDbEntity
  8
0
 62
     7
420
 16777215
370
     0
100
AcDbLine
 10
148807.999
 20
59095.001
 30
0.0
 11
148192.001
 21
59095.001
 31
0.0
  0
LINE
  5
82F
330
C02
100
AcDbEntity
  8
0
 62
     7
420
 16777215
370
     0
100
AcDbLine
 10
149529.999
 20
89294.99799999999
 30
0.0
 11
149529.999
 21
89595.00099999999
 31
0.0
  0
LINE
  5
830
330
C02
100
AcDbEntity
  8
0
 62
     7
420
 16777215
370
     0
100
AcDbLine
 10
147470.001
 20
89294.998
 30
0.0
 11
147470.001
 21
89595.001
 31
0.0
  0
LINE
  5
831
330
C02
100
AcDbEntity
  8
0
 62
     7
420
 16777215
370
     0
100
AcDbLine
 10
147470.001
 20
90404.99900000001
 30
0.0
 11
147470.001
 21
90705.00200000001
 31
0.0
  0
LINE
  5
833
330
C02
100
AcDbEntity
  8
0
 62
     7
420
 16777215
370
     0
100
AcDbLine
 10
149529.999
 20
75654.99900000001
 30
0.0
 11
149529.999
 21
75705.002
 31
0.0
  0
LINE
  5
834
330
C02
100
AcDbEntity
  8
0
 62
     7
420
 16777215
370
     0
100
AcDbLine
 10
149529.999
 20
74294.998
 30
0.0
 11
149529.999
 21
74345.00099999999
 31
0.0
  0
LINE
  5
836
330
C02
100
AcDbEntity
  8
0
 62
     7
420
 16777215
370
     0
100
AcDbLine
 10
147470.001
 20
74294.998
 30
0.0
 11
147470.001
 21
74345.00099999999
 31
0.0
  0
LINE
  5
839
330
C02
100
AcDbEntity
  8
0
 62
     7
420
 16777215
370
     0
100
AcDbLine
 10
147470.001
 20
75654.99900000001
 30
0.0
 11
147470.001
 21
75705.002
 31
0.0
  0
HATCH
  5
844
330
C02
100
AcDbEntity
  8
0
 62
    18
420
        0
100
AcDbHatch
 10
0.0
 20
0.0
 30
0.0
210
0.0
220
0.0
230
1.0
  2
SOLID
 70
     1
 71
     0
 91
        3
 92
        0
 93
       12
 72
     1
 10
149100.006
 20
58849.998
 11
149100.006
 21
58900.002
 72
     1
 10
149100.006
 20
58900.002
 11
149050.003
 21
58900.002
 72
     1
 10
149050.003
 20
58900.002
 11
149050.003
 21
58949.997
 72
     1
 10
149050.003
 20
58949.997
 11
149000.0
 21
58949.997
 72
     1
 10
149000.0
 20
58949.997
 11
149000.0
 21
58900.002
 72
     1
 10
149000.0
 20
58900.002
 11
148949.997
 21
58900.002
 72
     1
 10
148949.997
 20
58900.002
 11
148949.997
 21
58849.998
 72
     1
 10
148949.997
 20
58849.998
 11
149000.0
 21
58849.998
 72
     1
 10
149000.0
 20
58849.998
 11
149000.0
 21
58800.003
 72
     1
 10
149000.0
 20
58800.003
 11
149050.003
 21
58800.003
 72
     1
 10
149050.003
 20
58800.003
 11
149050.003
 21
58849.998
 72
     1
 10
149050.003
 20
58849.998
 11
149100.006
 21
58849.998
 97
        0
 92
        0
 93
        7
 72
     1
 10
147550.003
 20
61250.0
 11
147550.003
 21
61750.0
 72
     1
 10
147550.003
 20
61750.0
 11
147399.994
 21
61750.0
 72
     1
 10
147399.994
 20
61750.0
 11
147399.994
 21
61250.0
 72
     1
 10
147399.994
 20
61250.0
 11
147250.0
 21
61250.0
 72
     1
 10
147250.0
 20
61250.0
 11
147475.006
 21
61025.002
 72
     1
 10
147475.006
 20
61025.002
 11
147699.997
 21
61250.0
 72
     1
 10
147699.997
 20
61250.0
 11
147550.003
 21
61250.0
 97
        0
 92
        0
 93
       12
 72
     1
 10
148000.0
 20
61199.997
 11
147949.997
 21
61199.997
 72
     1
 10
147949.997
 20
61199.997
 11
147949.997
 21
61150.002
 72
     1
 10
147949.997
 20
61150.002
 11
147899.994
 21
61150.002
 72
     1
 10
147899.994
 20
61150.002
 11
147899.994
 21
61099.998
 72
     1
 10
147899.994
 20
61099.998
 11
147949.997
 21
61099.998
 72
     1
 10
147949.997
 20
61099.998
 11
147949.997
 21
61050.003
 72
     1
 10
147949.997
 20
61050.003
 11
148000.0
 21
61050.003
 72
     1
 10
148000.0
 20
61050.003
 11
148000.0
 21
61099.998
 72
     1
 10
148000.0
 20
61099.998
 11
148050.003
 21
61099.998
 72
     1
 10
148050.003
 20
61099.998
 11
148050.003
 21
61150.002
 72
     1
 10
148050.003
 20
61150.002
 11
148000.0
 21
61150.002
 72
     1
 10
148000.0
 20
61150.002
 11
148000.0
 21
61199.997
 97
        0
 75
     0
 76
     1
 98
        0
  0
LINE
  5
980
330
C02
100
AcDbEntity
  8
0
 62
     7
420
 16777215
370
     0
100
AcDbLine
 10
162050.003
 20
61750.0
 30
0.0
 11
161899.994
 21
61750.0
 31
0.0
  0
LINE
  5
981
330
C02
100
AcDbEntity
  8
0
 62
     7
420
 16777215
370
     0
100
AcDbLine
 10
162050.003
 20
61250.0
 30
0.0
 11
162050.003
 21
61750.0
 31
0.0
  0
LINE
  5
982
330
C02
100
AcDbEntity
  8
0
 62
     7
420
 16777215
370
     0
100
AcDbLine
 10
162050.003
 20
61250.0
 30
0.0
 11
162199.997
 21
61250.0
 31
0.0
  0
LINE
  5
983
330
C02
100
AcDbEntity
  8
0
 62
     7
420
 16777215
370
     0
100
AcDbLine
 10
162500.0
 20
61300.003
 30
0.0
 11
162550.003
 21
61300.003
 31
0.0
  0
LINE
  5
984
330
C02
100
AcDbEntity
  8
0
 62
     7
420
 16777215
370
     0
100
AcDbLine
 10
162550.003
 20
61250.0
 30
0.0
 11
162550.003
 21
61300.003
 31
0.0
  0
LINE
  5
985
330
C02
100
AcDbEntity
  8
0
 62
     7
420
 16777215
370
     0
100
AcDbLine
 10
162550.003
 20
61250.0
 30
0.0
 11
162500.0
 21
61250.0
 31
0.0
  0
LINE
  5
986
330
C02
100
AcDbEntity
  8
0
 62
     7
420
 16777215
370
     0
100
AcDbLine
 10
162500.0
 20
61199.997
 30
0.0
 11
162500.0
 21
61250.0
 31
0.0
  0
LINE
  5
987
330
C02
100
AcDbEntity
  8
0
 62
     7
420
 16777215
370
     0
100
AcDbLine
 10
162449.997
 20
61199.997
 30
0.0
 11
162500.0
 21
61199.997
 31
0.0
  0
LINE
  5
988
330
C02
100
AcDbEntity
  8
0
 62
     7
420
 16777215
370
     0
100
AcDbLine
 10
162449.997
 20
61250.0
 30
0.0
 11
162449.997
 21
61199.997
 31
0.0
  0
LINE
  5
989
330
C02
100
AcDbEntity
  8
0
 62
     7
420
 16777215
370
     0
100
AcDbLine
 10
162449.997
 20
61250.0
 30
0.0
 11
162399.994
 21
61250.0
 31
0.0
  0
LINE
  5
98A
330
C02
100
AcDbEntity
  8
0
 62
     7
420
 16777215
370
     0
100
AcDbLine
 10
162399.994
 20
61300.003
 30
0.0
 11
162399.994
 21
61250.0
 31
0.0
  0
LINE
  5
98B
330
C02
100
AcDbEntity
  8
0
 62
     7
420
 16777215
370
     0
100
AcDbLine
 10
162399.994
 20
61300.003
 30
0.0
 11
162449.997
 21
61300.003
 31
0.0
  0
LINE
  5
98C
330
C02
100
AcDbEntity
  8
0
 62
     7
420
 16777215
370
     0
100
AcDbLine
 10
162449.997
 20
61349.998
 30
0.0
 11
162449.997
 21
61300.003
 31
0.0
  0
LINE
  5
98D
330
C02
100
AcDbEntity
  8
0
 62
     7
420
 16777215
370
     0
100
AcDbLine
 10
162500.0
 20
61349.998
 30
0.0
 11
162449.997
 21
61349.998
 31
0.0
  0
LINE
  5
98E
330
C02
100
AcDbEntity
  8
0
 62
     7
420
 16777215
370
     0
100
AcDbLine
 10
162500.0
 20
61300.003
 30
0.0
 11
162500.0
 21
61349.998
 31
0.0
  0
LINE
  5
98F
330
C02
100
AcDbEntity
  8
0
 62
     7
420
 16777215
370
     0
100
AcDbLine
 10
163500.0
 20
58699.997
 30
0.0
 11
163449.997
 21
58699.997
 31
0.0
  0
LINE
  5
990
330
C02
100
AcDbEntity
  8
0
 62
     7
420
 16777215
370
     0
100
AcDbLine
 10
163449.997
 20
58750.0
 30
0.0
 11
163449.997
 21
58699.997
 31
0.0
  0
LINE
  5
991
330
C02
100
AcDbEntity
  8
0
 62
     7
420
 16777215
370
     0
100
AcDbLine
 10
163449.997
 20
58750.0
 30
0.0
 11
163500.0
 21
58750.0
 31
0.0
  0
LINE
  5
992
330
C02
100
AcDbEntity
  8
0
 62
     7
420
 16777215
370
     0
100
AcDbLine
 10
163500.0
 20
58800.003
 30
0.0
 11
163500.0
 21
58750.0
 31
0.0
  0
LINE
  5
993
330
C02
100
AcDbEntity
  8
0
 62
     7
420
 16777215
370
     0
100
AcDbLine
 10
163550.003
 20
58800.003
 30
0.0
 11
163500.0
 21
58800.003
 31
0.0
  0
LINE
  5
994
330
C02
100
AcDbEntity
  8
0
 62
     7
420
 16777215
370
     0
100
AcDbLine
 10
163550.003
 20
58750.0
 30
0.0
 11
163550.003
 21
58800.003
 31
0.0
  0
LINE
  5
995
330
C02
100
AcDbEntity
  8
0
 62
     7
420
 16777215
370
     0
100
AcDbLine
 10
163550.003
 20
58750.0
 30
0.0
 11
163600.006
 21
58750.0
 31
0.0
  0
LINE
  5
996
330
C02
100
AcDbEntity
  8
0
 62
     7
420
 16777215
370
     0
100
AcDbLine
 10
163600.006
 20
58699.997
 30
0.0
 11
163600.006
 21
58750.0
 31
0.0
  0
LINE
  5
997
330
C02
100
AcDbEntity
  8
0
 62
     7
420
 16777215
370
     0
100
AcDbLine
 10
163600.006
 20
58699.997
 30
0.0
 11
163550.003
 21
58699.997
 31
0.0
  0
LINE
  5
998
330
C02
100
AcDbEntity
  8
0
 62
     7
420
 16777215
370
     0
100
AcDbLine
 10
163550.003
 20
58650.002
 30
0.0
 11
163550.003
 21
58699.997
 31
0.0
  0
LINE
  5
999
330
C02
100
AcDbEntity
  8
0
 62
     7
420
 16777215
370
     0
100
AcDbLine
 10
163500.0
 20
58650.002
 30
0.0
 11
163550.003
 21
58650.002
 31
0.0
  0
LINE
  5
99A
330
C02
100
AcDbEntity
  8
0
 62
     7
420
 16777215
370
     0
100
AcDbLine
 10
163500.0
 20
58699.997
 30
0.0
 11
163500.0
 21
58650.002
 31
0.0
  0
LINE
  5
99B
330
C02
100
AcDbEntity
  8
0
 62
     7
420
 16777215
370
     0
100
AcDbLine
 10
163929.993
 20
60904.999
 30
0.0
 11
162070.007
 21
60904.999
 31
0.0
  0
LINE
  5
99C
330
C02
100
AcDbEntity
  8
0
 62
     7
420
 16777215
370
     0
100
AcDbLine
 10
162550.003
 20
61105.003
 30
0.0
 11
162470.001
 21
61105.003
 31
0.0
  0
LINE
  5
99D
330
C02
100
AcDbEntity
  8
0
 62
     7
420
 16777215
370
     0
100
AcDbLine
 10
163529.999
 20
61105.003
 30
0.0
 11
163449.997
 21
61105.003
 31
0.0
  0
LINE
  5
99E
330
C02
100
AcDbEntity
  8
0
 62
     7
420
 16777215
370
     0
100
AcDbLine
 10
163929.993
 20
59095.001
 30
0.0
 11
162070.007
 21
59095.001
 31
0.0
  0
LINE
  5
99F
330
C02
100
AcDbEntity
  8
0
 62
     7
420
 16777215
370
     0
100
AcDbLine
 10
162550.003
 20
58894.997
 30
0.0
 11
162470.001
 21
58894.997
 31
0.0
  0
LINE
  5
9A0
330
C02
100
AcDbEntity
  8
0
 62
     7
420
 16777215
370
     0
100
AcDbLine
 10
163529.999
 20
58894.997
 30
0.0
 11
163449.997
 21
58894.997
 31
0.0
  0
ARC
  5
9A1
330
C02
100
AcDbEntity
  8
0
 62
     7
420
 16777215
370
     0
100
AcDbCircle
 10
162550.003
 20
61305.00000000001
 30
0.0
 40
200.0
100
AcDbArc
 50
269.999997
 51
0.0
  0
ARC
  5
9A2
330
C02
100
AcDbEntity
  8
0
 62
     7
420
 16777215
370
     0
100
AcDbCircle
 10
163449.997
 20
61305.00000000001
 30
0.0
 40
200.0
100
AcDbArc
 50
180.000005
 51
269.999997
  0
ARC
  5
9A3
330
C02
100
AcDbEntity
  8
0
 62
     7
420
 16777215
370
     0
100
AcDbCircle
 10
162550.003
 20
58694.99999999999
 30
0.0
 40
200.0
100
AcDbArc
 50
0.0
 51
90.000003
  0
ARC
  5
9A4
330
C02
100
AcDbEntity
  8
0
 62
     7
420
 16777215
370
     0
100
AcDbCircle
 10
163449.997
 20
58694.99999999999
 30
0.0
 40
200.0
100
AcDbArc
 50
90.000003
 51
180.000005
  0
ARC
  5
9A5
330
C02
100
AcDbEntity
  8
0
 62
     7
420
 16777215
370
     0
100
AcDbCircle
 10
163000.0
 20
57726.753
 30
0.0
 40
1000.0
100
AcDbArc
 50
104.477511
 51
75.52248800000001
  0
ARC
  5
9A6
330
C02
100
AcDbEntity
  8
0
 62
     7
420
 16777215
370
     0
100
AcDbCircle
 10
163000.0
 20
62273.247
 30
0.0
 40
1000.0
100
AcDbArc
 50
284.477512
 51
255.522489
  0
LINE
  5
9A7
330
C02
100
AcDbEntity
  8
0
 62
     7
420
 16777215
370
     0
100
AcDbLine
 10
163949.997
 20
61750.0
 30
0.0
 11
164100.006
 21
61750.0
 31
0.0
  0
LINE
  5
9A8
330
C02
100
AcDbEntity
  8
0
 62
     7
420
 16777215
370
     0
100
AcDbLine
 10
164100.006
 20
61750.0
 30
0.0
 11
164100.006
 21
61250.0
 31
0.0
  0
LINE
  5
9A9
330
C02
100
AcDbEntity
  8
0
 62
     7
420
 16777215
370
     0
100
AcDbLine
 10
164250.0
 20
61250.0
 30
0.0
 11
164100.006
 21
61250.0
 31
0.0
  0
LINE
  5
9AA
330
C02
100
AcDbEntity
  8
0
 62
     7
420
 16777215
370
     0
100
AcDbLine
 10
164250.0
 20
61250.0
 30
0.0
 11
164024.994
 21
61025.002
 31
0.0
  0
LINE
  5
9AB
330
C02
100
AcDbEntity
  8
0
 62
     7
420
 16777215
370
     0
100
AcDbLine
 10
163800.003
 20
61250.0
 30
0.0
 11
164024.994
 21
61025.002
 31
0.0
  0
LINE
  5
9AC
330
C02
100
AcDbEntity
  8
0
 62
     7
420
 16777215
370
     0
100
AcDbLine
 10
163949.997
 20
61250.0
 30
0.0
 11
163800.003
 21
61250.0
 31
0.0
  0
LINE
  5
9AD
330
C02
100
AcDbEntity
  8
0
 62
     7
420
 16777215
370
     0
100
AcDbLine
 10
163949.997
 20
61250.0
 30
0.0
 11
163949.997
 21
61750.0
 31
0.0
  0
LINE
  5
9AE
330
C02
100
AcDbEntity
  8
0
 62
     7
420
 16777215
370
     0
100
AcDbLine
 10
162199.997
 20
61250.0
 30
0.0
 11
161975.006
 21
61025.002
 31
0.0
  0
LINE
  5
9AF
330
C02
100
AcDbEntity
  8
0
 62
     7
420
 16777215
370
     0
100
AcDbLine
 10
161750.0
 20
61250.0
 30
0.0
 11
161975.006
 21
61025.002
 31
0.0
  0
ARC
  5
9B0
330
C02
100
AcDbEntity
  8
0
 62
     7
420
 16777215
370
     0
100
AcDbCircle
 10
162470.001
 20
60605.003
 30
0.0
 40
500.0
100
AcDbArc
 50
90.000003
 51
143.1306753098008
  0
ARC
  5
9B1
330
C02
100
AcDbEntity
  8
0
 62
     7
420
 16777215
370
     0
100
AcDbCircle
 10
163529.999
 20
60605.003
 30
0.0
 40
500.0
100
AcDbArc
 50
36.86932469019922
 51
90.000003
  0
ARC
  5
9B2
330
C02
100
AcDbEntity
  8
0
 62
     7
420
 16777215
370
     0
100
AcDbCircle
 10
163529.999
 20
59394.997
 30
0.0
 40
500.0
100
AcDbArc
 50
269.999997
 51
323.1306753098008
  0
ARC
  5
9B3
330
C02
100
AcDbEntity
  8
0
 62
     7
420
 16777215
370
     0
100
AcDbCircle
 10
162470.001
 20
59394.997
 30
0.0
 40
500.0
100
AcDbArc
 50
216.8693246901992
 51
269.999997
  0
HATCH
  5
9B4
330
C02
100
AcDbEntity
  8
0
 62
    18
420
        0
100
AcDbHatch
 10
0.0
 20
0.0
 30
0.0
210
0.0
220
0.0
230
1.0
  2
SOLID
 70
     1
 71
     0
 91
        4
 92
        0
 93
       12
 72
     1
 10
162449.997
 20
61250.0
 11
162399.994
 21
61250.0
 72
     1
 10
162399.994
 20
61250.0
 11
162399.994
 21
61300.003
 72
     1
 10
162399.994
 20
61300.003
 11
162449.997
 21
61300.003
 72
     1
 10
162449.997
 20
61300.003
 11
162449.997
 21
61349.998
 72
     1
 10
162449.997
 20
61349.998
 11
162500.0
 21
61349.998
 72
     1
 10
162500.0
 20
61349.998
 11
162500.0
 21
61300.003
 72
     1
 10
162500.0
 20
61300.003
 11
162550.003
 21
61300.003
 72
     1
 10
162550.003
 20
61300.003
 11
162550.003
 21
61250.0
 72
     1
 10
162550.003
 20
61250.0
 11
162500.0
 21
61250.0
 72
     1
 10
162500.0
 20
61250.0
 11
162500.0
 21
61199.997
 72
     1
 10
162500.0
 20
61199.997
 11
162449.997
 21
61199.997
 72
     1
 10
162449.997
 20
61199.997
 11
162449.997
 21
61250.0
 97
        0
 92
        0
 93
       12
 72
     1
 10
163500.0
 20
58699.997
 11
163449.997
 21
58699.997
 72
     1
 10
163449.997
 20
58699.997
 11
163449.997
 21
58750.0
 72
     1
 10
163449.997
 20
58750.0
 11
163500.0
 21
58750.0
 72
     1
 10
163500.0
 20
58750.0
 11
163500.0
 21
58800.003
 72
     1
 10
163500.0
 20
58800.003
 11
163550.003
 21
58800.003
 72
     1
 10
163550.003
 20
58800.003
 11
163550.003
 21
58750.0
 72
     1
 10
163550.003
 20
58750.0
 11
163600.006
 21
58750.0
 72
     1
 10
163600.006
 20
58750.0
 11
163600.006
 21
58699.997
 72
     1
 10
163600.006
 20
58699.997
 11
163550.003
 21
58699.997
 72
     1
 10
163550.003
 20
58699.997
 11
163550.003
 21
58650.002
 72
     1
 10
163550.003
 20
58650.002
 11
163500.0
 21
58650.002
 72
     1
 10
163500.0
 20
58650.002
 11
163500.0
 21
58699.997
 97
        0
 92
        0
 93
        7
 72
     1
 10
163949.997
 20
61750.0
 11
164100.006
 21
61750.0
 72
     1
 10
164100.006
 20
61750.0
 11
164100.006
 21
61250.0
 72
     1
 10
164100.006
 20
61250.0
 11
164250.0
 21
61250.0
 72
     1
 10
164250.0
 20
61250.0
 11
164024.994
 21
61025.002
 72
     1
 10
164024.994
 20
61025.002
 11
163800.003
 21
61250.0
 72
     1
 10
163800.003
 20
61250.0
 11
163949.997
 21
61250.0
 72
     1
 10
163949.997
 20
61250.0
 11
163949.997
 21
61750.0
 97
        0
 92
        0
 93
        7
 72
     1
 10
162199.997
 20
61250.0
 11
161975.006
 21
61025.002
 72
     1
 10
161975.006
 20
61025.002
 11
161750.0
 21
61250.0
 72
     1
 10
161750.0
 20
61250.0
 11
161899.994
 21
61250.0
 72
     1
 10
161899.994
 20
61250.0
 11
161899.994
 21
61750.0
 72
     1
 10
161899.994
 20
61750.0
 11
162050.003
 21
61750.0
 72
     1
 10
162050.003
 20
61750.0
 11
162050.003
 21
61250.0
 72
     1
 10
162050.003
 20
61250.0
 11
162199.997
 21
61250.0
 97
        0
 75
     0
 76
     1
 98
        0
  0
LINE
  5
9B9
330
C02
100
AcDbEntity
  8
0
 62
     7
420
 16777215
370
     0
100
AcDbLine
 10
161750.0
 20
61250.0
 30
0.0
 11
161899.994
 21
61250.0
 31
0.0
  0
LINE
  5
9BA
330
C02
100
AcDbEntity
  8
0
 62
     7
420
 16777215
370
     0
100
AcDbLine
 10
161899.994
 20
61750.0
 30
0.0
 11
161899.994
 21
61250.0
 31
0.0
  0
LINE
  5
9D1
330
C02
100
AcDbEntity
  8
0
 62
     7
420
 16777215
370
     0
100
AcDbLine
 10
161899.994
 20
76750.0
 30
0.0
 11
161899.994
 21
76250.0
 31
0.0
  0
LINE
  5
9D2
330
C02
100
AcDbEntity
  8
0
 62
     7
420
 16777215
370
     0
100
AcDbLine
 10
162050.003
 20
76750.0
 30
0.0
 11
161899.994
 21
76750.0
 31
0.0
  0
LINE
  5
9D3
330
C02
100
AcDbEntity
  8
0
 62
     7
420
 16777215
370
     0
100
AcDbLine
 10
162050.003
 20
76250.0
 30
0.0
 11
162050.003
 21
76750.0
 31
0.0
  0
ARC
  5
9D4
330
C02
100
AcDbEntity
  8
0
 62
     7
420
 16777215
370
     0
100
AcDbCircle
 10
162470.001
 20
75605.003
 30
0.0
 40
500.0
100
AcDbArc
 50
90.000003
 51
174.261290197947
  0
LINE
  5
9D5
330
C02
100
AcDbEntity
  8
0
 62
     7
420
 16777215
370
     0
100
AcDbLine
 10
162050.003
 20
76250.0
 30
0.0
 11
162199.997
 21
76250.0
 31
0.0
  0
ARC
  5
9D6
330
C02
100
AcDbEntity
  8
0
 62
     7
420
 16777215
370
     0
100
AcDbCircle
 10
163529.999
 20
75605.003
 30
0.0
 40
500.0
100
AcDbArc
 50
5.738709802053032
 51
90.000003
  0
LINE
  5
9D7
330
C02
100
AcDbEntity
  8
0
 62
     7
420
 16777215
370
     0
100
AcDbLine
 10
164027.496
 20
74345.00099999999
 30
0.0
 11
161972.504
 21
74345.00099999999
 31
0.0
  0
LINE
  5
9D8
330
C02
100
AcDbEntity
  8
0
 62
     7
420
 16777215
370
     0
100
AcDbLine
 10
162500.0
 20
76300.003
 30
0.0
 11
162550.003
 21
76300.003
 31
0.0
  0
ARC
  5
9D9
330
C02
100
AcDbEntity
  8
0
 62
     7
420
 16777215
370
     0
100
AcDbCircle
 10
162470.001
 20
74394.997
 30
0.0
 40
500.0
100
AcDbArc
 50
185.738709802053
 51
269.999997
  0
LINE
  5
9DA
330
C02
100
AcDbEntity
  8
0
 62
     7
420
 16777215
370
     0
100
AcDbLine
 10
162550.003
 20
76250.0
 30
0.0
 11
162550.003
 21
76300.003
 31
0.0
  0
ARC
  5
9DB
330
C02
100
AcDbEntity
  8
0
 62
     7
420
 16777215
370
     0
100
AcDbCircle
 10
163529.999
 20
74394.997
 30
0.0
 40
500.0
100
AcDbArc
 50
269.999997
 51
354.2612901979468
  0
LINE
  5
9DC
330
C02
100
AcDbEntity
  8
0
 62
     7
420
 16777215
370
     0
100
AcDbLine
 10
162550.003
 20
76250.0
 30
0.0
 11
162500.0
 21
76250.0
 31
0.0
  0
LINE
  5
9DD
330
C02
100
AcDbEntity
  8
0
 62
     7
420
 16777215
370
     0
100
AcDbLine
 10
162500.0
 20
76199.997
 30
0.0
 11
162500.0
 21
76250.0
 31
0.0
  0
LINE
  5
9DE
330
C02
100
AcDbEntity
  8
0
 62
     7
420
 16777215
370
     0
100
AcDbLine
 10
162449.997
 20
76199.997
 30
0.0
 11
162500.0
 21
76199.997
 31
0.0
  0
LINE
  5
9DF
330
C02
100
AcDbEntity
  8
0
 62
     7
420
 16777215
370
     0
100
AcDbLine
 10
162449.997
 20
76250.0
 30
0.0
 11
162449.997
 21
76199.997
 31
0.0
  0
LINE
  5
9E0
330
C02
100
AcDbEntity
  8
0
 62
     7
420
 16777215
370
     0
100
AcDbLine
 10
162449.997
 20
76250.0
 30
0.0
 11
162399.994
 21
76250.0
 31
0.0
  0
LINE
  5
9E1
330
C02
100
AcDbEntity
  8
0
 62
     7
420
 16777215
370
     0
100
AcDbLine
 10
162399.994
 20
76300.003
 30
0.0
 11
162399.994
 21
76250.0
 31
0.0
  0
LINE
  5
9E2
330
C02
100
AcDbEntity
  8
0
 62
     7
420
 16777215
370
     0
100
AcDbLine
 10
162399.994
 20
76300.003
 30
0.0
 11
162449.997
 21
76300.003
 31
0.0
  0
LINE
  5
9E3
330
C02
100
AcDbEntity
  8
0
 62
     7
420
 16777215
370
     0
100
AcDbLine
 10
162449.997
 20
76349.99799999999
 30
0.0
 11
162449.997
 21
76300.003
 31
0.0
  0
LINE
  5
9E4
330
C02
100
AcDbEntity
  8
0
 62
     7
420
 16777215
370
     0
100
AcDbLine
 10
162500.0
 20
76349.99799999999
 30
0.0
 11
162449.997
 21
76349.99799999999
 31
0.0
  0
LINE
  5
9E5
330
C02
100
AcDbEntity
  8
0
 62
     7
420
 16777215
370
     0
100
AcDbLine
 10
162500.0
 20
76300.003
 30
0.0
 11
162500.0
 21
76349.99799999999
 31
0.0
  0
LINE
  5
9E6
330
C02
100
AcDbEntity
  8
0
 62
     7
420
 16777215
370
     0
100
AcDbLine
 10
163500.0
 20
73699.997
 30
0.0
 11
163449.997
 21
73699.997
 31
0.0
  0
LINE
  5
9E7
330
C02
100
AcDbEntity
  8
0
 62
     7
420
 16777215
370
     0
100
AcDbLine
 10
163449.997
 20
73750.0
 30
0.0
 11
163449.997
 21
73699.997
 31
0.0
  0
LINE
  5
9E8
330
C02
100
AcDbEntity
  8
0
 62
     7
420
 16777215
370
     0
100
AcDbLine
 10
163449.997
 20
73750.0
 30
0.0
 11
163500.0
 21
73750.0
 31
0.0
  0
LINE
  5
9E9
330
C02
100
AcDbEntity
  8
0
 62
     7
420
 16777215
370
     0
100
AcDbLine
 10
163500.0
 20
73800.003
 30
0.0
 11
163500.0
 21
73750.0
 31
0.0
  0
LINE
  5
9EA
330
C02
100
AcDbEntity
  8
0
 62
     7
420
 16777215
370
     0
100
AcDbLine
 10
163550.003
 20
73800.003
 30
0.0
 11
163500.0
 21
73800.003
 31
0.0
  0
LINE
  5
9EB
330
C02
100
AcDbEntity
  8
0
 62
     7
420
 16777215
370
     0
100
AcDbLine
 10
163550.003
 20
73750.0
 30
0.0
 11
163550.003
 21
73800.003
 31
0.0
  0
LINE
  5
9EC
330
C02
100
AcDbEntity
  8
0
 62
     7
420
 16777215
370
     0
100
AcDbLine
 10
163550.003
 20
73750.0
 30
0.0
 11
163600.006
 21
73750.0
 31
0.0
  0
LINE
  5
9ED
330
C02
100
AcDbEntity
  8
0
 62
     7
420
 16777215
370
     0
100
AcDbLine
 10
163600.006
 20
73699.997
 30
0.0
 11
163600.006
 21
73750.0
 31
0.0
  0
LINE
  5
9EE
330
C02
100
AcDbEntity
  8
0
 62
     7
420
 16777215
370
     0
100
AcDbLine
 10
163600.006
 20
73699.997
 30
0.0
 11
163550.003
 21
73699.997
 31
0.0
  0
LINE
  5
9EF
330
C02
100
AcDbEntity
  8
0
 62
     7
420
 16777215
370
     0
100
AcDbLine
 10
163550.003
 20
73650.00200000001
 30
0.0
 11
163550.003
 21
73699.997
 31
0.0
  0
LINE
  5
9F0
330
C02
100
AcDbEntity
  8
0
 62
     7
420
 16777215
370
     0
100
AcDbLine
 10
164027.496
 20
75654.99900000001
 30
0.0
 11
161972.504
 21
75654.99900000001
 31
0.0
  0
LINE
  5
9F1
330
C02
100
AcDbEntity
  8
0
 62
     7
420
 16777215
370
     0
100
AcDbLine
 10
163500.0
 20
73650.00200000001
 30
0.0
 11
163550.003
 21
73650.00200000001
 31
0.0
  0
LINE
  5
9F2
330
C02
100
AcDbEntity
  8
0
 62
     7
420
 16777215
370
     0
100
AcDbLine
 10
163500.0
 20
73699.997
 30
0.0
 11
163500.0
 21
73650.00200000001
 31
0.0
  0
LINE
  5
9F3
330
C02
100
AcDbEntity
  8
0
 62
     7
420
 16777215
370
     0
100
AcDbLine
 10
162550.003
 20
76105.003
 30
0.0
 11
162470.001
 21
76105.003
 31
0.0
  0
LINE
  5
9F4
330
C02
100
AcDbEntity
  8
0
 62
     7
420
 16777215
370
     0
100
AcDbLine
 10
163529.999
 20
76105.003
 30
0.0
 11
163449.997
 21
76105.003
 31
0.0
  0
LINE
  5
9F5
330
C02
100
AcDbEntity
  8
0
 62
     7
420
 16777215
370
     0
100
AcDbLine
 10
162550.003
 20
73894.997
 30
0.0
 11
162470.001
 21
73894.997
 31
0.0
  0
LINE
  5
9F6
330
C02
100
AcDbEntity
  8
0
 62
     7
420
 16777215
370
     0
100
AcDbLine
 10
163529.999
 20
73894.997
 30
0.0
 11
163449.997
 21
73894.997
 31
0.0
  0
ARC
  5
9F7
330
C02
100
AcDbEntity
  8
0
 62
     7
420
 16777215
370
     0
100
AcDbCircle
 10
162550.003
 20
76305.0
 30
0.0
 40
200.0
100
AcDbArc
 50
269.999997
 51
0.0
  0
ARC
  5
9F8
330
C02
100
AcDbEntity
  8
0
 62
     7
420
 16777215
370
     0
100
AcDbCircle
 10
163449.997
 20
76305.0
 30
0.0
 40
200.0
100
AcDbArc
 50
180.000005
 51
269.999997
  0
ARC
  5
9F9
330
C02
100
AcDbEntity
  8
0
 62
     7
420
 16777215
370
     0
100
AcDbCircle
 10
162550.003
 20
73695.0
 30
0.0
 40
200.0
100
AcDbArc
 50
0.0
 51
90.000003
  0
ARC
  5
9FA
330
C02
100
AcDbEntity
  8
0
 62
     7
420
 16777215
370
     0
100
AcDbCircle
 10
163449.997
 20
73695.0
 30
0.0
 40
200.0
100
AcDbArc
 50
90.000003
 51
180.000005
  0
ARC
  5
9FB
330
C02
100
AcDbEntity
  8
0
 62
     7
420
 16777215
370
     0
100
AcDbCircle
 10
163000.0
 20
72726.753
 30
0.0
 40
1000.0
100
AcDbArc
 50
104.477511
 51
75.52248800000001
  0
ARC
  5
9FC
330
C02
100
AcDbEntity
  8
0
 62
     7
420
 16777215
370
     0
100
AcDbCircle
 10
163000.0
 20
77273.247
 30
0.0
 40
1000.0
100
AcDbArc
 50
284.477512
 51
255.522489
  0
LINE
  5
9FE
330
C02
100
AcDbEntity
  8
0
 62
     7
420
 16777215
370
     0
100
AcDbLine
 10
168500.0
 20
70000.0
 30
0.0
 11
168500.0
 21
80000.0
 31
0.0
  0
LINE
  5
A01
330
C02
100
AcDbEntity
  8
0
 62
     7
420
 16777215
370
     0
100
AcDbLine
 10
163949.997
 20
76750.0
 30
0.0
 11
164100.006
 21
76750.0
 31
0.0
  0
LINE
  5
A02
330
C02
100
AcDbEntity
  8
0
 62
     7
420
 16777215
370
     0
100
AcDbLine
 10
164100.006
 20
76750.0
 30
0.0
 11
164100.006
 21
76250.0
 31
0.0
  0
LINE
  5
A03
330
C02
100
AcDbEntity
  8
0
 62
     7
420
 16777215
370
     0
100
AcDbLine
 10
164250.0
 20
76250.0
 30
0.0
 11
164100.006
 21
76250.0
 31
0.0
  0
LINE
  5
A04
330
C02
100
AcDbEntity
  8
0
 62
     7
420
 16777215
370
     0
100
AcDbLine
 10
164250.0
 20
76250.0
 30
0.0
 11
164024.994
 21
76025.00200000001
 31
0.0
  0
LINE
  5
A05
330
C02
100
AcDbEntity
  8
0
 62
     7
420
 16777215
370
     0
100
AcDbLine
 10
163800.003
 20
76250.0
 30
0.0
 11
164024.994
 21
76025.00200000001
 31
0.0
  0
LINE
  5
A06
330
C02
100
AcDbEntity
  8
0
 62
     7
420
 16777215
370
     0
100
AcDbLine
 10
163949.997
 20
76250.0
 30
0.0
 11
163800.003
 21
76250.0
 31
0.0
  0
LINE
  5
A07
330
C02
100
AcDbEntity
  8
0
 62
     7
420
 16777215
370
     0
100
AcDbLine
 10
163949.997
 20
76250.0
 30
0.0
 11
163949.997
 21
76750.0
 31
0.0
  0
LINE
  5
A08
330
C02
100
AcDbEntity
  8
0
 62
     7
420
 16777215
370
     0
100
AcDbLine
 10
162199.997
 20
76250.0
 30
0.0
 11
161975.006
 21
76025.00200000001
 31
0.0
  0
LINE
  5
A09
330
C02
100
AcDbEntity
  8
0
 62
     7
420
 16777215
370
     0
100
AcDbLine
 10
161750.0
 20
76250.0
 30
0.0
 11
161975.006
 21
76025.00200000001
 31
0.0
  0
LINE
  5
A0A
330
C02
100
AcDbEntity
  8
0
 62
     7
420
 16777215
370
     0
100
AcDbLine
 10
161750.0
 20
76250.0
 30
0.0
 11
161899.994
 21
76250.0
 31
0.0
  0
CIRCLE
  5
A0B
330
C02
100
AcDbEntity
  8
0
 62
     7
420
 16777215
370
     0
100
AcDbCircle
 10
163539.993
 20
90555.0
 30
0.0
 40
50.0
  0
CIRCLE
  5
A0C
330
C02
100
AcDbEntity
  8
0
 62
     7
420
 16777215
370
     0
100
AcDbCircle
 10
162729.996
 20
90555.0
 30
0.0
 40
50.0
  0
CIRCLE
  5
A0D
330
C02
100
AcDbEntity
  8
0
 62
     7
420
 16777215
370
     0
100
AcDbCircle
 10
162190.002
 20
90555.0
 30
0.0
 40
50.0
  0
LINE
  5
A0E
330
C02
100
AcDbEntity
  8
0
 62
     7
420
 16777215
370
     0
100
AcDbLine
 10
161970.001
 20
90404.99900000001
 30
0.0
 11
164029.999
 21
90404.99900000001
 31
0.0
  0
LINE
  5
A0F
330
C02
100
AcDbEntity
  8
0
 62
     7
420
 16777215
370
     0
100
AcDbLine
 10
164029.999
 20
89595.00099999999
 30
0.0
 11
161970.001
 21
89595.00099999999
 31
0.0
  0
ARC
  5
A10
330
C02
100
AcDbEntity
  8
0
 62
     7
420
 16777215
370
     0
100
AcDbCircle
 10
162470.001
 20
90605.003
 30
0.0
 40
500.0
100
AcDbArc
 50
90.000003
 51
180.000005
  0
LINE
  5
A11
330
C02
100
AcDbEntity
  8
0
 62
     7
420
 16777215
370
     0
100
AcDbLine
 10
161970.001
 20
89394.997
 30
0.0
 11
161970.001
 21
89595.00099999999
 31
0.0
  0
LINE
  5
A12
330
C02
100
AcDbEntity
  8
0
 62
     7
420
 16777215
370
     0
100
AcDbLine
 10
162550.003
 20
91105.003
 30
0.0
 11
162470.001
 21
91105.003
 31
0.0
  0
ARC
  5
A13
330
C02
100
AcDbEntity
  8
0
 62
     7
420
 16777215
370
     0
100
AcDbCircle
 10
163529.999
 20
90605.003
 30
0.0
 40
500.0
100
AcDbArc
 50
0.0
 51
90.000003
  0
LINE
  5
A14
330
C02
100
AcDbEntity
  8
0
 62
     7
420
 16777215
370
     0
100
AcDbLine
 10
164029.999
 20
90404.99900000001
 30
0.0
 11
164029.999
 21
90605.003
 31
0.0
  0
LINE
  5
A15
330
C02
100
AcDbEntity
  8
0
 62
     7
420
 16777215
370
     0
100
AcDbLine
 10
163529.999
 20
91105.003
 30
0.0
 11
163449.997
 21
91105.003
 31
0.0
  0
ARC
  5
A16
330
C02
100
AcDbEntity
  8
0
 62
     7
420
 16777215
370
     0
100
AcDbCircle
 10
162470.001
 20
89394.997
 30
0.0
 40
500.0
100
AcDbArc
 50
180.000005
 51
269.999997
  0
LINE
  5
A17
330
C02
100
AcDbEntity
  8
0
 62
     7
420
 16777215
370
     0
100
AcDbLine
 10
162550.003
 20
88894.997
 30
0.0
 11
162470.001
 21
88894.997
 31
0.0
  0
ARC
  5
A18
330
C02
100
AcDbEntity
  8
0
 62
     7
420
 16777215
370
     0
100
AcDbCircle
 10
163529.999
 20
89394.997
 30
0.0
 40
500.0
100
AcDbArc
 50
269.999997
 51
0.0
  0
LINE
  5
A19
330
C02
100
AcDbEntity
  8
0
 62
     7
420
 16777215
370
     0
100
AcDbLine
 10
163529.999
 20
88894.997
 30
0.0
 11
163449.997
 21
88894.997
 31
0.0
  0
ARC
  5
A1A
330
C02
100
AcDbEntity
  8
0
 62
     7
420
 16777215
370
     0
100
AcDbCircle
 10
162550.003
 20
91305.0
 30
0.0
 40
200.0
100
AcDbArc
 50
269.999997
 51
0.0
  0
ARC
  5
A1B
330
C02
100
AcDbEntity
  8
0
 62
     7
420
 16777215
370
     0
100
AcDbCircle
 10
163449.997
 20
91305.0
 30
0.0
 40
200.0
100
AcDbArc
 50
180.000005
 51
269.999997
  0
LINE
  5
A1C
330
C02
100
AcDbEntity
  8
0
 62
     7
420
 16777215
370
     0
100
AcDbLine
 10
164029.999
 20
89394.997
 30
0.0
 11
164029.999
 21
89595.00099999999
 31
0.0
  0
ARC
  5
A1D
330
C02
100
AcDbEntity
  8
0
 62
     7
420
 16777215
370
     0
100
AcDbCircle
 10
162550.003
 20
88695.0
 30
0.0
 40
200.0
100
AcDbArc
 50
0.0
 51
90.000003
  0
LINE
  5
A1E
330
C02
100
AcDbEntity
  8
0
 62
     7
420
 16777215
370
     0
100
AcDbLine
 10
161970.001
 20
90404.99900000001
 30
0.0
 11
161970.001
 21
90605.00300000001
 31
0.0
  0
ARC
  5
A1F
330
C02
100
AcDbEntity
  8
0
 62
     7
420
 16777215
370
     0
100
AcDbCircle
 10
163449.997
 20
88695.0
 30
0.0
 40
200.0
100
AcDbArc
 50
90.000003
 51
180.000005
  0
ARC
  5
A20
330
C02
100
AcDbEntity
  8
0
 62
     7
420
 16777215
370
     0
100
AcDbCircle
 10
163000.0
 20
87726.753
 30
0.0
 40
1000.0
100
AcDbArc
 50
104.477511
 51
75.52248800000001
  0
ARC
  5
A21
330
C02
100
AcDbEntity
  8
0
 62
     7
420
 16777215
370
     0
100
AcDbCircle
 10
163000.0
 20
92273.247
 30
0.0
 40
1000.0
100
AcDbArc
 50
284.477512
 51
255.522489
  0
LINE
  5
A22
330
C02
100
AcDbEntity
  8
0
 62
     7
420
 16777215
370
     0
100
AcDbLine
 10
157534.0
 20
95000.0
 30
0.0
 11
168500.0
 21
95000.0
 31
0.0
  0
LINE
  5
A23
330
C02
100
AcDbEntity
  8
0
 62
     7
420
 16777215
370
     0
100
AcDbLine
 10
168500.0
 20
85000.0
 30
0.0
 11
168500.0
 21
95000.0
 31
0.0
  0
LINE
  5
A24
330
C02
100
AcDbEntity
  8
0
 62
     7
420
 16777215
370
     0
100
AcDbLine
 10
168500.0
 20
85000.0
 30
0.0
 11
157535.0
 21
85000.0
 31
0.0
  0
LINE
  5
A25
330
C02
100
AcDbEntity
  8
0
 62
     7
420
 16777215
370
     0
100
AcDbLine
 10
157534.0
 20
95000.0
 30
0.0
 11
157535.0
 21
85000.0
 31
0.0
  0
LINE
  5
A26
330
C02
100
AcDbEntity
  8
0
 62
     7
420
 16777215
370
     0
100
AcDbLine
 10
163949.997
 20
91750.0
 30
0.0
 11
164100.006
 21
91750.0
 31
0.0
  0
LINE
  5
A27
330
C02
100
AcDbEntity
  8
0
 62
     7
420
 16777215
370
     0
100
AcDbLine
 10
164100.006
 20
91750.0
 30
0.0
 11
164100.006
 21
91250.0
 31
0.0
  0
LINE
  5
A28
330
C02
100
AcDbEntity
  8
0
 62
     7
420
 16777215
370
     0
100
AcDbLine
 10
164250.0
 20
91250.0
 30
0.0
 11
164100.006
 21
91250.0
 31
0.0
  0
LINE
  5
A29
330
C02
100
AcDbEntity
  8
0
 62
     7
420
 16777215
370
     0
100
AcDbLine
 10
164250.0
 20
91250.0
 30
0.0
 11
164024.994
 21
91025.00200000001
 31
0.0
  0
LINE
  5
A2A
330
C02
100
AcDbEntity
  8
0
 62
     7
420
 16777215
370
     0
100
AcDbLine
 10
163800.003
 20
91250.0
 30
0.0
 11
164024.994
 21
91025.00200000001
 31
0.0
  0
LINE
  5
A2B
330
C02
100
AcDbEntity
  8
0
 62
     7
420
 16777215
370
     0
100
AcDbLine
 10
163949.997
 20
91250.0
 30
0.0
 11
163800.003
 21
91250.0
 31
0.0
  0
LINE
  5
A2C
330
C02
100
AcDbEntity
  8
0
 62
     7
420
 16777215
370
     0
100
AcDbLine
 10
163949.997
 20
91250.0
 30
0.0
 11
163949.997
 21
91750.0
 31
0.0
  0
LINE
  5
A2D
330
C02
100
AcDbEntity
  8
0
 62
     7
420
 16777215
370
     0
100
AcDbLine
 10
162199.997
 20
91250.0
 30
0.0
 11
161975.006
 21
91025.00200000001
 31
0.0
  0
LINE
  5
A2E
330
C02
100
AcDbEntity
  8
0
 62
     7
420
 16777215
370
     0
100
AcDbLine
 10
161750.0
 20
91250.0
 30
0.0
 11
161975.006
 21
91025.00200000001
 31
0.0
  0
LINE
  5
A2F
330
C02
100
AcDbEntity
  8
0
 62
     7
420
 16777215
370
     0
100
AcDbLine
 10
161750.0
 20
91250.0
 30
0.0
 11
161899.994
 21
91250.0
 31
0.0
  0
LINE
  5
A30
330
C02
100
AcDbEntity
  8
0
 62
     7
420
 16777215
370
     0
100
AcDbLine
 10
161899.994
 20
91750.0
 30
0.0
 11
161899.994
 21
91250.0
 31
0.0
  0
LINE
  5
A31
330
C02
100
AcDbEntity
  8
0
 62
     7
420
 16777215
370
     0
100
AcDbLine
 10
162050.003
 20
91750.0
 30
0.0
 11
161899.994
 21
91750.0
 31
0.0
  0
LINE
  5
A32
330
C02
100
AcDbEntity
  8
0
 62
     7
420
 16777215
370
     0
100
AcDbLine
 10
162050.003
 20
91250.0
 30
0.0
 11
162050.003
 21
91750.0
 31
0.0
  0
LINE
  5
A33
330
C02
100
AcDbEntity
  8
0
 62
     7
420
 16777215
370
     0
100
AcDbLine
 10
162050.003
 20
91250.0
 30
0.0
 11
162199.997
 21
91250.0
 31
0.0
  0
LINE
  5
A34
330
C02
100
AcDbEntity
  8
0
 62
     7
420
 16777215
370
     0
100
AcDbLine
 10
162500.0
 20
91300.003
 30
0.0
 11
162550.003
 21
91300.003
 31
0.0
  0
LINE
  5
A35
330
C02
100
AcDbEntity
  8
0
 62
     7
420
 16777215
370
     0
100
AcDbLine
 10
162550.003
 20
91250.0
 30
0.0
 11
162550.003
 21
91300.003
 31
0.0
  0
LINE
  5
A36
330
C02
100
AcDbEntity
  8
0
 62
     7
420
 16777215
370
     0
100
AcDbLine
 10
162550.003
 20
91250.0
 30
0.0
 11
162500.0
 21
91250.0
 31
0.0
  0
LINE
  5
A37
330
C02
100
AcDbEntity
  8
0
 62
     7
420
 16777215
370
     0
100
AcDbLine
 10
162500.0
 20
91199.997
 30
0.0
 11
162500.0
 21
91250.0
 31
0.0
  0
LINE
  5
A38
330
C02
100
AcDbEntity
  8
0
 62
     7
420
 16777215
370
     0
100
AcDbLine
 10
162449.997
 20
91199.997
 30
0.0
 11
162500.0
 21
91199.997
 31
0.0
  0
LINE
  5
A39
330
C02
100
AcDbEntity
  8
0
 62
     7
420
 16777215
370
     0
100
AcDbLine
 10
162449.997
 20
91250.0
 30
0.0
 11
162449.997
 21
91199.997
 31
0.0
  0
LINE
  5
A3A
330
C02
100
AcDbEntity
  8
0
 62
     7
420
 16777215
370
     0
100
AcDbLine
 10
162449.997
 20
91250.0
 30
0.0
 11
162399.994
 21
91250.0
 31
0.0
  0
LINE
  5
A3B
330
C02
100
AcDbEntity
  8
0
 62
     7
420
 16777215
370
     0
100
AcDbLine
 10
162399.994
 20
91300.003
 30
0.0
 11
162399.994
 21
91250.0
 31
0.0
  0
LINE
  5
A3C
330
C02
100
AcDbEntity
  8
0
 62
     7
420
 16777215
370
     0
100
AcDbLine
 10
162399.994
 20
91300.003
 30
0.0
 11
162449.997
 21
91300.003
 31
0.0
  0
LINE
  5
A3D
330
C02
100
AcDbEntity
  8
0
 62
     7
420
 16777215
370
     0
100
AcDbLine
 10
162449.997
 20
91349.99799999999
 30
0.0
 11
162449.997
 21
91300.003
 31
0.0
  0
LINE
  5
A3E
330
C02
100
AcDbEntity
  8
0
 62
     7
420
 16777215
370
     0
100
AcDbLine
 10
162500.0
 20
91349.99799999999
 30
0.0
 11
162449.997
 21
91349.99799999999
 31
0.0
  0
LINE
  5
A3F
330
C02
100
AcDbEntity
  8
0
 62
     7
420
 16777215
370
     0
100
AcDbLine
 10
162500.0
 20
91300.003
 30
0.0
 11
162500.0
 21
91349.99799999999
 31
0.0
  0
LINE
  5
A40
330
C02
100
AcDbEntity
  8
0
 62
     7
420
 16777215
370
     0
100
AcDbLine
 10
163500.0
 20
88699.997
 30
0.0
 11
163449.997
 21
88699.997
 31
0.0
  0
LINE
  5
A41
330
C02
100
AcDbEntity
  8
0
 62
     7
420
 16777215
370
     0
100
AcDbLine
 10
163449.997
 20
88750.0
 30
0.0
 11
163449.997
 21
88699.997
 31
0.0
  0
LINE
  5
A42
330
C02
100
AcDbEntity
  8
0
 62
     7
420
 16777215
370
     0
100
AcDbLine
 10
163449.997
 20
88750.0
 30
0.0
 11
163500.0
 21
88750.0
 31
0.0
  0
LINE
  5
A43
330
C02
100
AcDbEntity
  8
0
 62
     7
420
 16777215
370
     0
100
AcDbLine
 10
163500.0
 20
88800.003
 30
0.0
 11
163500.0
 21
88750.0
 31
0.0
  0
LINE
  5
A44
330
C02
100
AcDbEntity
  8
0
 62
     7
420
 16777215
370
     0
100
AcDbLine
 10
163550.003
 20
88800.003
 30
0.0
 11
163500.0
 21
88800.003
 31
0.0
  0
LINE
  5
A45
330
C02
100
AcDbEntity
  8
0
 62
     7
420
 16777215
370
     0
100
AcDbLine
 10
163550.003
 20
88750.0
 30
0.0
 11
163550.003
 21
88800.003
 31
0.0
  0
LINE
  5
A46
330
C02
100
AcDbEntity
  8
0
 62
     7
420
 16777215
370
     0
100
AcDbLine
 10
163550.003
 20
88750.0
 30
0.0
 11
163600.006
 21
88750.0
 31
0.0
  0
LINE
  5
A47
330
C02
100
AcDbEntity
  8
0
 62
     7
420
 16777215
370
     0
100
AcDbLine
 10
163600.006
 20
88699.997
 30
0.0
 11
163600.006
 21
88750.0
 31
0.0
  0
LINE
  5
A48
330
C02
100
AcDbEntity
  8
0
 62
     7
420
 16777215
370
     0
100
AcDbLine
 10
163600.006
 20
88699.997
 30
0.0
 11
163550.003
 21
88699.997
 31
0.0
  0
LINE
  5
A49
330
C02
100
AcDbEntity
  8
0
 62
     7
420
 16777215
370
     0
100
AcDbLine
 10
163550.003
 20
88650.00200000001
 30
0.0
 11
163550.003
 21
88699.997
 31
0.0
  0
LINE
  5
A4A
330
C02
100
AcDbEntity
  8
0
 62
     7
420
 16777215
370
     0
100
AcDbLine
 10
163500.0
 20
88650.00200000001
 30
0.0
 11
163550.003
 21
88650.00200000001
 31
0.0
  0
LINE
  5
A4B
330
C02
100
AcDbEntity
  8
0
 62
     7
420
 16777215
370
     0
100
AcDbLine
 10
163500.0
 20
88699.997
 30
0.0
 11
163500.0
 21
88650.00200000001
 31
0.0
  0
CIRCLE
  5
A4C
330
C02
100
AcDbEntity
  8
0
 62
     7
420
 16777215
370
     0
100
AcDbCircle
 10
163000.0
 20
90555.0
 30
0.0
 40
50.0
  0
CIRCLE
  5
A4D
330
C02
100
AcDbEntity
  8
0
 62
     7
420
 16777215
370
     0
100
AcDbCircle
 10
162460.007
 20
90555.0
 30
0.0
 40
50.0
  0
CIRCLE
  5
A4E
330
C02
100
AcDbEntity
  8
0
 62
     7
420
 16777215
370
     0
100
AcDbCircle
 10
163270.004
 20
90555.0
 30
0.0
 40
50.0
  0
CIRCLE
  5
A4F
330
C02
100
AcDbEntity
  8
0
 62
     7
420
 16777215
370
     0
100
AcDbCircle
 10
163809.998
 20
90555.0
 30
0.0
 40
50.0
  0
CIRCLE
  5
A50
330
C02
100
AcDbEntity
  8
0
 62
     7
420
 16777215
370
     0
100
AcDbCircle
 10
162460.007
 20
89445.0
 30
0.0
 40
50.0
  0
CIRCLE
  5
A51
330
C02
100
AcDbEntity
  8
0
 62
     7
420
 16777215
370
     0
100
AcDbCircle
 10
163000.0
 20
89445.0
 30
0.0
 40
50.0
  0
CIRCLE
  5
A52
330
C02
100
AcDbEntity
  8
0
 62
     7
420
 16777215
370
     0
100
AcDbCircle
 10
163539.993
 20
89445.0
 30
0.0
 40
50.0
  0
CIRCLE
  5
A53
330
C02
100
AcDbEntity
  8
0
 62
     7
420
 16777215
370
     0
100
AcDbCircle
 10
163809.998
 20
89445.0
 30
0.0
 40
50.0
  0
CIRCLE
  5
A54
330
C02
100
AcDbEntity
  8
0
 62
     7
420
 16777215
370
     0
100
AcDbCircle
 10
163270.004
 20
89445.0
 30
0.0
 40
50.0
  0
CIRCLE
  5
A55
330
C02
100
AcDbEntity
  8
0
 62
     7
420
 16777215
370
     0
100
AcDbCircle
 10
162729.996
 20
89445.0
 30
0.0
 40
50.0
  0
CIRCLE
  5
A56
330
C02
100
AcDbEntity
  8
0
 62
     7
420
 16777215
370
     0
100
AcDbCircle
 10
162190.002
 20
89445.0
 30
0.0
 40
50.0
  0
CIRCLE
  5
A57
330
C02
100
AcDbEntity
  8
0
 62
     7
420
 16777215
370
     0
100
AcDbCircle
 10
163809.998
 20
104445.0
 30
0.0
 40
50.0
  0
CIRCLE
  5
A58
330
C02
100
AcDbEntity
  8
0
 62
     7
420
 16777215
370
     0
100
AcDbCircle
 10
163270.004
 20
104445.0
 30
0.0
 40
50.0
  0
CIRCLE
  5
A59
330
C02
100
AcDbEntity
  8
0
 62
     7
420
 16777215
370
     0
100
AcDbCircle
 10
162729.996
 20
104445.0
 30
0.0
 40
50.0
  0
CIRCLE
  5
A5A
330
C02
100
AcDbEntity
  8
0
 62
     7
420
 16777215
370
     0
100
AcDbCircle
 10
162190.002
 20
104445.0
 30
0.0
 40
50.0
  0
CIRCLE
  5
A5B
330
C02
100
AcDbEntity
  8
0
 62
     7
420
 16777215
370
     0
100
AcDbCircle
 10
163539.993
 20
105555.0
 30
0.0
 40
50.0
  0
CIRCLE
  5
A5C
330
C02
100
AcDbEntity
  8
0
 62
     7
420
 16777215
370
     0
100
AcDbCircle
 10
162729.996
 20
105555.0
 30
0.0
 40
50.0
  0
CIRCLE
  5
A5D
330
C02
100
AcDbEntity
  8
0
 62
     7
420
 16777215
370
     0
100
AcDbCircle
 10
162190.002
 20
105555.0
 30
0.0
 40
50.0
  0
CIRCLE
  5
A5E
330
C02
100
AcDbEntity
  8
0
 62
     7
420
 16777215
370
     0
100
AcDbCircle
 10
162190.002
 20
104730.003
 30
0.0
 40
50.0
  0
CIRCLE
  5
A5F
330
C02
100
AcDbEntity
  8
0
 62
     7
420
 16777215
370
     0
100
AcDbCircle
 10
162729.996
 20
104730.003
 30
0.0
 40
50.0
  0
CIRCLE
  5
A60
330
C02
100
AcDbEntity
  8
0
 62
     7
420
 16777215
370
     0
100
AcDbCircle
 10
163270.004
 20
104730.003
 30
0.0
 40
50.0
  0
CIRCLE
  5
A61
330
C02
100
AcDbEntity
  8
0
 62
     7
420
 16777215
370
     0
100
AcDbCircle
 10
163809.998
 20
104730.003
 30
0.0
 40
50.0
  0
CIRCLE
  5
A62
330
C02
100
AcDbEntity
  8
0
 62
     7
420
 16777215
370
     0
100
AcDbCircle
 10
162460.007
 20
105000.0
 30
0.0
 40
50.0
  0
CIRCLE
  5
A63
330
C02
100
AcDbEntity
  8
0
 62
     7
420
 16777215
370
     0
100
AcDbCircle
 10
163270.004
 20
105000.0
 30
0.0
 40
50.0
  0
CIRCLE
  5
A64
330
C02
100
AcDbEntity
  8
0
 62
     7
420
 16777215
370
     0
100
AcDbCircle
 10
163809.998
 20
105000.0
 30
0.0
 40
50.0
  0
CIRCLE
  5
A65
330
C02
100
AcDbEntity
  8
0
 62
     7
420
 16777215
370
     0
100
AcDbCircle
 10
162460.007
 20
105269.997
 30
0.0
 40
50.0
  0
CIRCLE
  5
A66
330
C02
100
AcDbEntity
  8
0
 62
     7
420
 16777215
370
     0
100
AcDbCircle
 10
163000.0
 20
105269.997
 30
0.0
 40
50.0
  0
CIRCLE
  5
A67
330
C02
100
AcDbEntity
  8
0
 62
     7
420
 16777215
370
     0
100
AcDbCircle
 10
163539.993
 20
105269.997
 30
0.0
 40
50.0
  0
CIRCLE
  5
A68
330
C02
100
AcDbEntity
  8
0
 62
     7
420
 16777215
370
     0
100
AcDbCircle
 10
163000.0
 20
105000.0
 30
0.0
 40
50.0
  0
ARC
  5
A69
330
C02
100
AcDbEntity
  8
0
 62
     7
420
 16777215
370
     0
100
AcDbCircle
 10
162470.001
 20
105605.003
 30
0.0
 40
500.0
100
AcDbArc
 50
90.000003
 51
180.000005
  0
LINE
  5
A6A
330
C02
100
AcDbEntity
  8
0
 62
     7
420
 16777215
370
     0
100
AcDbLine
 10
161970.001
 20
104394.997
 30
0.0
 11
161970.001
 21
104693.9725374475
 31
0.0
  0
LINE
  5
A6B
330
C02
100
AcDbEntity
  8
0
 62
     7
420
 16777215
370
     0
100
AcDbLine
 10
162550.003
 20
106105.003
 30
0.0
 11
162470.001
 21
106105.003
 31
0.0
  0
ARC
  5
A6C
330
C02
100
AcDbEntity
  8
0
 62
     7
420
 16777215
370
     0
100
AcDbCircle
 10
163529.999
 20
105605.003
 30
0.0
 40
500.0
100
AcDbArc
 50
0.0
 51
90.000003
  0
LINE
  5
A6D
330
C02
100
AcDbEntity
  8
0
 62
     7
420
 16777215
370
     0
100
AcDbLine
 10
164029.999
 20
104394.997
 30
0.0
 11
164029.999
 21
104694.0123042934
 31
0.0
  0
LINE
  5
A6E
330
C02
100
AcDbEntity
  8
0
 62
     7
420
 16777215
370
     0
100
AcDbLine
 10
163529.999
 20
106105.003
 30
0.0
 11
163449.997
 21
106105.003
 31
0.0
  0
ARC
  5
A6F
330
C02
100
AcDbEntity
  8
0
 62
     7
420
 16777215
370
     0
100
AcDbCircle
 10
162470.001
 20
104394.997
 30
0.0
 40
500.0
100
AcDbArc
 50
180.000005
 51
269.999997
  0
LINE
  5
A70
330
C02
100
AcDbEntity
  8
0
 62
     7
420
 16777215
370
     0
100
AcDbLine
 10
162550.003
 20
103894.997
 30
0.0
 11
162470.001
 21
103894.997
 31
0.0
  0
ARC
  5
A71
330
C02
100
AcDbEntity
  8
0
 62
     7
420
 16777215
370
     0
100
AcDbCircle
 10
163529.999
 20
104394.997
 30
0.0
 40
500.0
100
AcDbArc
 50
269.999997
 51
0.0
  0
LINE
  5
A72
330
C02
100
AcDbEntity
  8
0
 62
     7
420
 16777215
370
     0
100
AcDbLine
 10
163529.999
 20
103894.997
 30
0.0
 11
163449.997
 21
103894.997
 31
0.0
  0
ARC
  5
A73
330
C02
100
AcDbEntity
  8
0
 62
     7
420
 16777215
370
     0
100
AcDbCircle
 10
162550.003
 20
106305.0
 30
0.0
 40
200.0
100
AcDbArc
 50
269.999997
 51
0.0
  0
ARC
  5
A74
330
C02
100
AcDbEntity
  8
0
 62
     7
420
 16777215
370
     0
100
AcDbCircle
 10
163449.997
 20
106305.0
 30
0.0
 40
200.0
100
AcDbArc
 50
180.000005
 51
269.999997
  0
ARC
  5
A75
330
C02
100
AcDbEntity
  8
0
 62
     7
420
 16777215
370
     0
100
AcDbCircle
 10
162550.003
 20
103695.0
 30
0.0
 40
200.0
100
AcDbArc
 50
0.0
 51
90.000003
  0
ARC
  5
A76
330
C02
100
AcDbEntity
  8
0
 62
     7
420
 16777215
370
     0
100
AcDbCircle
 10
163449.997
 20
103695.0
 30
0.0
 40
200.0
100
AcDbArc
 50
90.000003
 51
180.000005
  0
ARC
  5
A77
330
C02
100
AcDbEntity
  8
0
 62
     7
420
 16777215
370
     0
100
AcDbCircle
 10
163000.0
 20
102726.753
 30
0.0
 40
1000.0
100
AcDbArc
 50
104.477511
 51
75.52248800000001
  0
ARC
  5
A78
330
C02
100
AcDbEntity
  8
0
 62
     7
420
 16777215
370
     0
100
AcDbCircle
 10
163000.0
 20
107273.247
 30
0.0
 40
1000.0
100
AcDbArc
 50
284.477512
 51
255.522489
  0
CIRCLE
  5
A7D
330
C02
100
AcDbEntity
  8
0
 62
     7
420
 16777215
370
     0
100
AcDbCircle
 10
163809.998
 20
105269.997
 30
0.0
 40
50.0
  0
CIRCLE
  5
A7E
330
C02
100
AcDbEntity
  8
0
 62
     7
420
 16777215
370
     0
100
AcDbCircle
 10
163270.004
 20
105269.997
 30
0.0
 40
50.0
  0
CIRCLE
  5
A7F
330
C02
100
AcDbEntity
  8
0
 62
     7
420
 16777215
370
     0
100
AcDbCircle
 10
162729.996
 20
105269.997
 30
0.0
 40
50.0
  0
CIRCLE
  5
A80
330
C02
100
AcDbEntity
  8
0
 62
     7
420
 16777215
370
     0
100
AcDbCircle
 10
162190.002
 20
105269.997
 30
0.0
 40
50.0
  0
CIRCLE
  5
A81
330
C02
100
AcDbEntity
  8
0
 62
     7
420
 16777215
370
     0
100
AcDbCircle
 10
163539.993
 20
105000.0
 30
0.0
 40
50.0
  0
CIRCLE
  5
A82
330
C02
100
AcDbEntity
  8
0
 62
     7
420
 16777215
370
     0
100
AcDbCircle
 10
162729.996
 20
105000.0
 30
0.0
 40
50.0
  0
CIRCLE
  5
A83
330
C02
100
AcDbEntity
  8
0
 62
     7
420
 16777215
370
     0
100
AcDbCircle
 10
162190.002
 20
105000.0
 30
0.0
 40
50.0
  0
CIRCLE
  5
A84
330
C02
100
AcDbEntity
  8
0
 62
     7
420
 16777215
370
     0
100
AcDbCircle
 10
163539.993
 20
104730.003
 30
0.0
 40
50.0
  0
CIRCLE
  5
A85
330
C02
100
AcDbEntity
  8
0
 62
     7
420
 16777215
370
     0
100
AcDbCircle
 10
163000.0
 20
104730.003
 30
0.0
 40
50.0
  0
CIRCLE
  5
A86
330
C02
100
AcDbEntity
  8
0
 62
     7
420
 16777215
370
     0
100
AcDbCircle
 10
162460.007
 20
104730.003
 30
0.0
 40
50.0
  0
LINE
  5
A87
330
C02
100
AcDbEntity
  8
0
 62
     7
420
 16777215
370
     0
100
AcDbLine
 10
163949.997
 20
106750.0
 30
0.0
 11
164100.006
 21
106750.0
 31
0.0
  0
LINE
  5
A88
330
C02
100
AcDbEntity
  8
0
 62
     7
420
 16777215
370
     0
100
AcDbLine
 10
164100.006
 20
106750.0
 30
0.0
 11
164100.006
 21
106250.0
 31
0.0
  0
LINE
  5
A89
330
C02
100
AcDbEntity
  8
0
 62
     7
420
 16777215
370
     0
100
AcDbLine
 10
164250.0
 20
106250.0
 30
0.0
 11
164100.006
 21
106250.0
 31
0.0
  0
LINE
  5
A8A
330
C02
100
AcDbEntity
  8
0
 62
     7
420
 16777215
370
     0
100
AcDbLine
 10
164250.0
 20
106250.0
 30
0.0
 11
164024.994
 21
106025.002
 31
0.0
  0
LINE
  5
A8B
330
C02
100
AcDbEntity
  8
0
 62
     7
420
 16777215
370
     0
100
AcDbLine
 10
163800.003
 20
106250.0
 30
0.0
 11
164024.994
 21
106025.002
 31
0.0
  0
LINE
  5
A8C
330
C02
100
AcDbEntity
  8
0
 62
     7
420
 16777215
370
     0
100
AcDbLine
 10
163949.997
 20
106250.0
 30
0.0
 11
163800.003
 21
106250.0
 31
0.0
  0
LINE
  5
A8D
330
C02
100
AcDbEntity
  8
0
 62
     7
420
 16777215
370
     0
100
AcDbLine
 10
163949.997
 20
106250.0
 30
0.0
 11
163949.997
 21
106750.0
 31
0.0
  0
LINE
  5
A8E
330
C02
100
AcDbEntity
  8
0
 62
     7
420
 16777215
370
     0
100
AcDbLine
 10
162199.997
 20
106250.0
 30
0.0
 11
161975.006
 21
106025.002
 31
0.0
  0
LINE
  5
A8F
330
C02
100
AcDbEntity
  8
0
 62
     7
420
 16777215
370
     0
100
AcDbLine
 10
161750.0
 20
106250.0
 30
0.0
 11
161975.006
 21
106025.002
 31
0.0
  0
LINE
  5
A90
330
C02
100
AcDbEntity
  8
0
 62
     7
420
 16777215
370
     0
100
AcDbLine
 10
161750.0
 20
106250.0
 30
0.0
 11
161899.994
 21
106250.0
 31
0.0
  0
LINE
  5
A91
330
C02
100
AcDbEntity
  8
0
 62
     7
420
 16777215
370
     0
100
AcDbLine
 10
161899.994
 20
106750.0
 30
0.0
 11
161899.994
 21
106250.0
 31
0.0
  0
LINE
  5
A92
330
C02
100
AcDbEntity
  8
0
 62
     7
420
 16777215
370
     0
100
AcDbLine
 10
162050.003
 20
106750.0
 30
0.0
 11
161899.994
 21
106750.0
 31
0.0
  0
LINE
  5
A93
330
C02
100
AcDbEntity
  8
0
 62
     7
420
 16777215
370
     0
100
AcDbLine
 10
162050.003
 20
106250.0
 30
0.0
 11
162050.003
 21
106750.0
 31
0.0
  0
LINE
  5
A94
330
C02
100
AcDbEntity
  8
0
 62
     7
420
 16777215
370
     0
100
AcDbLine
 10
162050.003
 20
106250.0
 30
0.0
 11
162199.997
 21
106250.0
 31
0.0
  0
LINE
  5
A95
330
C02
100
AcDbEntity
  8
0
 62
     7
420
 16777215
370
     0
100
AcDbLine
 10
162500.0
 20
106300.003
 30
0.0
 11
162550.003
 21
106300.003
 31
0.0
  0
LINE
  5
A96
330
C02
100
AcDbEntity
  8
0
 62
     7
420
 16777215
370
     0
100
AcDbLine
 10
162550.003
 20
106250.0
 30
0.0
 11
162550.003
 21
106300.003
 31
0.0
  0
LINE
  5
A97
330
C02
100
AcDbEntity
  8
0
 62
     7
420
 16777215
370
     0
100
AcDbLine
 10
162550.003
 20
106250.0
 30
0.0
 11
162500.0
 21
106250.0
 31
0.0
  0
LINE
  5
A98
330
C02
100
AcDbEntity
  8
0
 62
     7
420
 16777215
370
     0
100
AcDbLine
 10
162500.0
 20
106199.997
 30
0.0
 11
162500.0
 21
106250.0
 31
0.0
  0
LINE
  5
A99
330
C02
100
AcDbEntity
  8
0
 62
     7
420
 16777215
370
     0
100
AcDbLine
 10
162449.997
 20
106199.997
 30
0.0
 11
162500.0
 21
106199.997
 31
0.0
  0
LINE
  5
A9A
330
C02
100
AcDbEntity
  8
0
 62
     7
420
 16777215
370
     0
100
AcDbLine
 10
162449.997
 20
106250.0
 30
0.0
 11
162449.997
 21
106199.997
 31
0.0
  0
LINE
  5
A9B
330
C02
100
AcDbEntity
  8
0
 62
     7
420
 16777215
370
     0
100
AcDbLine
 10
162449.997
 20
106250.0
 30
0.0
 11
162399.994
 21
106250.0
 31
0.0
  0
LINE
  5
A9C
330
C02
100
AcDbEntity
  8
0
 62
     7
420
 16777215
370
     0
100
AcDbLine
 10
162399.994
 20
106300.003
 30
0.0
 11
162399.994
 21
106250.0
 31
0.0
  0
LINE
  5
A9D
330
C02
100
AcDbEntity
  8
0
 62
     7
420
 16777215
370
     0
100
AcDbLine
 10
162399.994
 20
106300.003
 30
0.0
 11
162449.997
 21
106300.003
 31
0.0
  0
LINE
  5
A9E
330
C02
100
AcDbEntity
  8
0
 62
     7
420
 16777215
370
     0
100
AcDbLine
 10
162449.997
 20
106349.998
 30
0.0
 11
162449.997
 21
106300.003
 31
0.0
  0
LINE
  5
A9F
330
C02
100
AcDbEntity
  8
0
 62
     7
420
 16777215
370
     0
100
AcDbLine
 10
162500.0
 20
106349.998
 30
0.0
 11
162449.997
 21
106349.998
 31
0.0
  0
LINE
  5
AA0
330
C02
100
AcDbEntity
  8
0
 62
     7
420
 16777215
370
     0
100
AcDbLine
 10
162500.0
 20
106300.003
 30
0.0
 11
162500.0
 21
106349.998
 31
0.0
  0
LINE
  5
AA1
330
C02
100
AcDbEntity
  8
0
 62
     7
420
 16777215
370
     0
100
AcDbLine
 10
163500.0
 20
103699.997
 30
0.0
 11
163449.997
 21
103699.997
 31
0.0
  0
LINE
  5
AA2
330
C02
100
AcDbEntity
  8
0
 62
     7
420
 16777215
370
     0
100
AcDbLine
 10
163449.997
 20
103750.0
 30
0.0
 11
163449.997
 21
103699.997
 31
0.0
  0
LINE
  5
AA3
330
C02
100
AcDbEntity
  8
0
 62
     7
420
 16777215
370
     0
100
AcDbLine
 10
163449.997
 20
103750.0
 30
0.0
 11
163500.0
 21
103750.0
 31
0.0
  0
LINE
  5
AA4
330
C02
100
AcDbEntity
  8
0
 62
     7
420
 16777215
370
     0
100
AcDbLine
 10
163500.0
 20
103800.003
 30
0.0
 11
163500.0
 21
103750.0
 31
0.0
  0
LINE
  5
AA5
330
C02
100
AcDbEntity
  8
0
 62
     7
420
 16777215
370
     0
100
AcDbLine
 10
163550.003
 20
103800.003
 30
0.0
 11
163500.0
 21
103800.003
 31
0.0
  0
LINE
  5
AA6
330
C02
100
AcDbEntity
  8
0
 62
     7
420
 16777215
370
     0
100
AcDbLine
 10
163550.003
 20
103750.0
 30
0.0
 11
163550.003
 21
103800.003
 31
0.0
  0
LINE
  5
AA7
330
C02
100
AcDbEntity
  8
0
 62
     7
420
 16777215
370
     0
100
AcDbLine
 10
163550.003
 20
103750.0
 30
0.0
 11
163600.006
 21
103750.0
 31
0.0
  0
LINE
  5
AA8
330
C02
100
AcDbEntity
  8
0
 62
     7
420
 16777215
370
     0
100
AcDbLine
 10
163600.006
 20
103699.997
 30
0.0
 11
163600.006
 21
103750.0
 31
0.0
  0
LINE
  5
AA9
330
C02
100
AcDbEntity
  8
0
 62
     7
420
 16777215
370
     0
100
AcDbLine
 10
163600.006
 20
103699.997
 30
0.0
 11
163550.003
 21
103699.997
 31
0.0
  0
LINE
  5
AAA
330
C02
100
AcDbEntity
  8
0
 62
     7
420
 16777215
370
     0
100
AcDbLine
 10
163550.003
 20
103650.002
 30
0.0
 11
163550.003
 21
103699.997
 31
0.0
  0
LINE
  5
AAB
330
C02
100
AcDbEntity
  8
0
 62
     7
420
 16777215
370
     0
100
AcDbLine
 10
163500.0
 20
103650.002
 30
0.0
 11
163550.003
 21
103650.002
 31
0.0
  0
LINE
  5
AAC
330
C02
100
AcDbEntity
  8
0
 62
     7
420
 16777215
370
     0
100
AcDbLine
 10
163500.0
 20
103699.997
 30
0.0
 11
163500.0
 21
103650.002
 31
0.0
  0
CIRCLE
  5
AAD
330
C02
100
AcDbEntity
  8
0
 62
     7
420
 16777215
370
     0
100
AcDbCircle
 10
163000.0
 20
105555.0
 30
0.0
 40
50.0
  0
CIRCLE
  5
AAE
330
C02
100
AcDbEntity
  8
0
 62
     7
420
 16777215
370
     0
100
AcDbCircle
 10
162460.007
 20
105555.0
 30
0.0
 40
50.0
  0
CIRCLE
  5
AAF
330
C02
100
AcDbEntity
  8
0
 62
     7
420
 16777215
370
     0
100
AcDbCircle
 10
163270.004
 20
105555.0
 30
0.0
 40
50.0
  0
CIRCLE
  5
AB0
330
C02
100
AcDbEntity
  8
0
 62
     7
420
 16777215
370
     0
100
AcDbCircle
 10
163809.998
 20
105555.0
 30
0.0
 40
50.0
  0
CIRCLE
  5
AB1
330
C02
100
AcDbEntity
  8
0
 62
     7
420
 16777215
370
     0
100
AcDbCircle
 10
162460.007
 20
104445.0
 30
0.0
 40
50.0
  0
CIRCLE
  5
AB2
330
C02
100
AcDbEntity
  8
0
 62
     7
420
 16777215
370
     0
100
AcDbCircle
 10
163000.0
 20
104445.0
 30
0.0
 40
50.0
  0
CIRCLE
  5
AB3
330
C02
100
AcDbEntity
  8
0
 62
     7
420
 16777215
370
     0
100
AcDbCircle
 10
163539.993
 20
104445.0
 30
0.0
 40
50.0
  0
LINE
  5
AC9
330
C02
100
AcDbEntity
  8
0
 62
     7
420
 16777215
370
     0
100
AcDbLine
 10
154000.0
 20
55000.0
 30
0.0
 11
154000.0
 21
65000.0
 31
0.0
  0
LINE
  5
ACA
330
C02
100
AcDbEntity
  8
0
 62
     7
420
 16777215
370
     0
100
AcDbLine
 10
150205.9655
 20
59692.00099999999
 30
0.0
 11
150305.9635
 21
59692.00099999999
 31
0.0
  0
LINE
  5
ACB
330
C02
100
AcDbEntity
  8
0
 62
     7
420
 16777215
370
     0
100
AcDbLine
 10
150405.9695
 20
59792.00700000001
 30
0.0
 11
150405.9695
 21
59845.99299999999
 31
0.0
  0
ARC
  5
ACC
330
C02
100
AcDbEntity
  8
0
 62
     7
420
 16777215
370
     0
100
AcDbCircle
 10
150305.9635
 20
59792.00700000001
 30
0.0
 40
100.0
100
AcDbArc
 50
270.0
 51
0.0000030000000119
  0
LINE
  5
ACD
330
C02
100
AcDbEntity
  8
0
 62
     7
420
 16777215
370
     0
100
AcDbLine
 10
150605.9665
 20
60154.00700000001
 30
0.0
 11
150405.9695
 21
60154.00700000001
 31
0.0
  0
ARC
  5
ACE
330
C02
100
AcDbEntity
  8
0
 62
     7
420
 16777215
370
     0
100
AcDbCircle
 10
151594.0345
 20
60000.0
 30
0.0
 40
1000.0
100
AcDbArc
 50
188.858807
 51
171.141194
  0
LINE
  5
ACF
330
C02
100
AcDbEntity
  8
0
 62
     7
420
 16777215
370
     0
100
AcDbLine
 10
150405.9695
 20
59845.99299999999
 30
0.0
 11
150605.9665
 21
59845.99299999999
 31
0.0
  0
LINE
  5
AD0
330
C02
100
AcDbEntity
  8
0
 62
     7
420
 16777215
370
     0
100
AcDbLine
 10
150205.9655
 20
59692.00099999999
 30
0.0
 11
150205.9655
 21
60307.99900000001
 31
0.0
  0
LINE
  5
AD1
330
C02
100
AcDbEntity
  8
0
 62
     7
420
 16777215
370
     0
100
AcDbLine
 10
150305.9635
 20
60307.99900000001
 30
0.0
 11
150205.9655
 21
60307.99900000001
 31
0.0
  0
LINE
  5
AD2
330
C02
100
AcDbEntity
  8
0
 62
     7
420
 16777215
370
     0
100
AcDbLine
 10
150405.9695
 20
60154.00700000001
 30
0.0
 11
150405.9695
 21
60207.99299999999
 31
0.0
  0
ARC
  5
AD3
330
C02
100
AcDbEntity
  8
0
 62
     7
420
 16777215
370
     0
100
AcDbCircle
 10
150305.9635
 20
60207.99299999999
 30
0.0
 40
100.0
100
AcDbArc
 50
0.0000030000000119
 51
90.00000499999997
  0
LINE
  5
AD4
330
C02
100
AcDbEntity
  8
0
 62
     7
420
 16777215
370
     0
100
AcDbLine
 10
143000.0
 20
65000.0
 30
0.0
 11
143000.0
 21
55000.0
 31
0.0
  0
LINE
  5
ADF
330
C02
100
AcDbEntity
  8
0
 62
     7
420
 16777215
370
     0
100
AcDbLine
 10
146794.0345
 20
60307.99900000001
 30
0.0
 11
146694.0365
 21
60307.99900000001
 31
0.0
  0
LINE
  5
AE0
330
C02
100
AcDbEntity
  8
0
 62
     7
420
 16777215
370
     0
100
AcDbLine
 10
146594.0305
 20
60207.99299999999
 30
0.0
 11
146594.0305
 21
60154.00700000001
 31
0.0
  0
ARC
  5
AE1
330
C02
100
AcDbEntity
  8
0
 62
     7
420
 16777215
370
     0
100
AcDbCircle
 10
146694.0365
 20
60207.99299999999
 30
0.0
 40
100.0
100
AcDbArc
 50
90.0
 51
180.000003
  0
LINE
  5
AE2
330
C02
100
AcDbEntity
  8
0
 62
     7
420
 16777215
370
     0
100
AcDbLine
 10
146394.0335
 20
59845.99299999999
 30
0.0
 11
146594.0305
 21
59845.99299999999
 31
0.0
  0
ARC
  5
AE3
330
C02
100
AcDbEntity
  8
0
 62
     7
420
 16777215
370
     0
100
AcDbCircle
 10
145405.9655
 20
60000.0
 30
0.0
 40
1000.0
100
AcDbArc
 50
8.858806999999999
 51
351.141194
  0
LINE
  5
AE4
330
C02
100
AcDbEntity
  8
0
 62
     7
420
 16777215
370
     0
100
AcDbLine
 10
146594.0305
 20
60154.00700000001
 30
0.0
 11
146394.0335
 21
60154.00700000001
 31
0.0
  0
LINE
  5
AE5
330
C02
100
AcDbEntity
  8
0
 62
     7
420
 16777215
370
     0
100
AcDbLine
 10
146794.0345
 20
60307.99900000001
 30
0.0
 11
146794.0345
 21
59692.00099999999
 31
0.0
  0
LINE
  5
AE6
330
C02
100
AcDbEntity
  8
0
 62
     7
420
 16777215
370
     0
100
AcDbLine
 10
146694.0365
 20
59692.00099999999
 30
0.0
 11
146794.0345
 21
59692.00099999999
 31
0.0
  0
LINE
  5
AE7
330
C02
100
AcDbEntity
  8
0
 62
     7
420
 16777215
370
     0
100
AcDbLine
 10
146594.0305
 20
59845.99299999999
 30
0.0
 11
146594.0305
 21
59792.00700000001
 31
0.0
  0
ARC
  5
AE8
330
C02
100
AcDbEntity
  8
0
 62
     7
420
 16777215
370
     0
100
AcDbCircle
 10
146694.0365
 20
59792.00700000001
 30
0.0
 40
100.0
100
AcDbArc
 50
180.000003
 51
270.000005
  0
LINE
  5
AE9
330
C02
100
AcDbEntity
  8
0
 62
     7
420
 16777215
370
     0
100
AcDbLine
 10
161289.998
 20
60310.0
 30
0.0
 11
161190.0
 21
60310.0
 31
0.0
  0
LINE
  5
AEA
330
C02
100
AcDbEntity
  8
0
 62
     7
420
 16777215
370
     0
100
AcDbLine
 10
161089.994
 20
60209.99399999998
 30
0.0
 11
161089.994
 21
60156.008
 31
0.0
  0
ARC
  5
AEB
330
C02
100
AcDbEntity
  8
0
 62
     7
420
 16777215
370
     0
100
AcDbCircle
 10
161190.0
 20
60209.99399999998
 30
0.0
 40
100.0
100
AcDbArc
 50
90.0
 51
180.000003
  0
LINE
  5
AEC
330
C02
100
AcDbEntity
  8
0
 62
     7
420
 16777215
370
     0
100
AcDbLine
 10
160889.997
 20
59847.99399999998
 30
0.0
 11
161089.994
 21
59847.99399999998
 31
0.0
  0
ARC
  5
AED
330
C02
100
AcDbEntity
  8
0
 62
     7
420
 16777215
370
     0
100
AcDbCircle
 10
159901.929
 20
60002.00099999999
 30
0.0
 40
1000.0
100
AcDbArc
 50
8.858806999999999
 51
351.141194
  0
LINE
  5
AEE
330
C02
100
AcDbEntity
  8
0
 62
     7
420
 16777215
370
     0
100
AcDbLine
 10
161089.994
 20
60156.008
 30
0.0
 11
160889.997
 21
60156.008
 31
0.0
  0
LINE
  5
AEF
330
C02
100
AcDbEntity
  8
0
 62
     7
420
 16777215
370
     0
100
AcDbLine
 10
161289.998
 20
60310.0
 30
0.0
 11
161289.998
 21
59694.00199999998
 31
0.0
  0
LINE
  5
AF0
330
C02
100
AcDbEntity
  8
0
 62
     7
420
 16777215
370
     0
100
AcDbLine
 10
161190.0
 20
59694.00199999998
 30
0.0
 11
161289.998
 21
59694.00199999998
 31
0.0
  0
LINE
  5
AF1
330
C02
100
AcDbEntity
  8
0
 62
     7
420
 16777215
370
     0
100
AcDbLine
 10
161089.994
 20
59847.99399999998
 30
0.0
 11
161089.994
 21
59794.008
 31
0.0
  0
ARC
  5
AF2
330
C02
100
AcDbEntity
  8
0
 62
     7
420
 16777215
370
     0
100
AcDbCircle
 10
161190.0
 20
59794.008
 30
0.0
 40
100.0
100
AcDbArc
 50
180.000003
 51
270.000005
  0
LINE
  5
AF3
330
C02
100
AcDbEntity
  8
0
 62
     7
420
 16777215
370
     0
100
AcDbLine
 10
165005.9655
 20
59592.00099999999
 30
0.0
 11
165105.9635
 21
59592.00099999999
 31
0.0
  0
LINE
  5
AF4
330
C02
100
AcDbEntity
  8
0
 62
     7
420
 16777215
370
     0
100
AcDbLine
 10
165205.9695
 20
59692.00700000001
 30
0.0
 11
165205.9695
 21
59745.99299999999
 31
0.0
  0
ARC
  5
AF5
330
C02
100
AcDbEntity
  8
0
 62
     7
420
 16777215
370
     0
100
AcDbCircle
 10
165105.9635
 20
59692.00700000001
 30
0.0
 40
100.0
100
AcDbArc
 50
270.0
 51
0.0000030000000119
  0
LINE
  5
AF6
330
C02
100
AcDbEntity
  8
0
 62
     7
420
 16777215
370
     0
100
AcDbLine
 10
165405.9665
 20
60054.00700000001
 30
0.0
 11
165205.9695
 21
60054.00700000001
 31
0.0
  0
ARC
  5
AF7
330
C02
100
AcDbEntity
  8
0
 62
     7
420
 16777215
370
     0
100
AcDbCircle
 10
166394.0345
 20
59900.0
 30
0.0
 40
1000.0
100
AcDbArc
 50
188.858807
 51
171.141194
  0
LINE
  5
AF8
330
C02
100
AcDbEntity
  8
0
 62
     7
420
 16777215
370
     0
100
AcDbLine
 10
165205.9695
 20
59745.99299999999
 30
0.0
 11
165405.9665
 21
59745.99299999999
 31
0.0
  0
LINE
  5
AF9
330
C02
100
AcDbEntity
  8
0
 62
     7
420
 16777215
370
     0
100
AcDbLine
 10
165005.9655
 20
59592.00099999999
 30
0.0
 11
165005.9655
 21
60207.99900000001
 31
0.0
  0
LINE
  5
AFA
330
C02
100
AcDbEntity
  8
0
 62
     7
420
 16777215
370
     0
100
AcDbLine
 10
165105.9635
 20
60207.99900000001
 30
0.0
 11
165005.9655
 21
60207.99900000001
 31
0.0
  0
LINE
  5
AFB
330
C02
100
AcDbEntity
  8
0
 62
     7
420
 16777215
370
     0
100
AcDbLine
 10
165205.9695
 20
60054.00700000001
 30
0.0
 11
165205.9695
 21
60107.99299999999
 31
0.0
  0
ARC
  5
AFC
330
C02
100
AcDbEntity
  8
0
 62
     7
420
 16777215
370
     0
100
AcDbCircle
 10
165105.9635
 20
60107.99299999999
 30
0.0
 40
100.0
100
AcDbArc
 50
0.0000030000000119
 51
90.00000499999997
  0
ARC
  5
B1B
330
C02
100
AcDbEntity
  8
0
 62
     7
420
 16777215
370
     0
100
AcDbCircle
 10
146694.0365
 20
74792.00700000001
 30
0.0
 40
100.0
100
AcDbArc
 50
180.000003
 51
270.000005
  0
LINE
  5
B1C
330
C02
100
AcDbEntity
  8
0
 62
     7
420
 16777215
370
     0
100
AcDbLine
 10
147000.0
 20
75308.0
 30
0.0
 11
146694.0365
 21
75307.99900000001
 31
0.0
  0
LINE
  5
B1D
330
C02
100
AcDbEntity
  8
0
 62
     7
420
 16777215
370
     0
100
AcDbLine
 10
146594.0305
 20
75207.99299999999
 30
0.0
 11
146594.0305
 21
75154.00700000001
 31
0.0
  0
ARC
  5
B1E
330
C02
100
AcDbEntity
  8
0
 62
     7
420
 16777215
370
     0
100
AcDbCircle
 10
146694.0365
 20
75207.99299999999
 30
0.0
 40
100.0
100
AcDbArc
 50
90.0
 51
180.000003
  0
LINE
  5
B1F
330
C02
100
AcDbEntity
  8
0
 62
     7
420
 16777215
370
     0
100
AcDbLine
 10
146394.0335
 20
74845.99299999999
 30
0.0
 11
146594.0305
 21
74845.99299999999
 31
0.0
  0
ARC
  5
B20
330
C02
100
AcDbEntity
  8
0
 62
     7
420
 16777215
370
     0
100
AcDbCircle
 10
145405.9655
 20
75000.0
 30
0.0
 40
1000.0
100
AcDbArc
 50
8.858806999999999
 51
351.141194
  0
LINE
  5
B21
330
C02
100
AcDbEntity
  8
0
 62
     7
420
 16777215
370
     0
100
AcDbLine
 10
146594.0305
 20
75154.00700000001
 30
0.0
 11
146394.0335
 21
75154.00700000001
 31
0.0
  0
LINE
  5
B22
330
C02
100
AcDbEntity
  8
0
 62
     7
420
 16777215
370
     0
100
AcDbLine
 10
147000.0
 20
75308.0
 30
0.0
 11
147000.0
 21
74692.0
 31
0.0
  0
LINE
  5
B23
330
C02
100
AcDbEntity
  8
0
 62
     7
420
 16777215
370
     0
100
AcDbLine
 10
146694.0365
 20
74692.00099999999
 30
0.0
 11
147000.0
 21
74692.0
 31
0.0
  0
LINE
  5
B24
330
C02
100
AcDbEntity
  8
0
 62
     7
420
 16777215
370
     0
100
AcDbLine
 10
146594.0305
 20
74845.99299999999
 30
0.0
 11
146594.0305
 21
74792.00700000001
 31
0.0
  0
LINE
  5
B25
330
C02
100
AcDbEntity
  8
0
 62
     7
420
 16777215
370
     0
100
AcDbLine
 10
143000.0
 20
80000.0
 30
0.0
 11
143000.0
 21
70000.0
 31
0.0
  0
LINE
  5
B26
330
C02
100
AcDbEntity
  8
0
 62
     7
420
 16777215
370
     0
100
AcDbLine
 10
154000.0
 20
80000.0
 30
0.0
 11
154000.0
 21
70000.0
 31
0.0
  0
LINE
  5
B3B
330
C02
100
AcDbEntity
  8
0
 62
     7
420
 16777215
370
     0
100
AcDbLine
 10
150002.98275
 20
74692.0
 30
0.0
 11
150308.94625
 21
74692.00099999999
 31
0.0
  0
LINE
  5
B3C
330
C02
100
AcDbEntity
  8
0
 62
     7
420
 16777215
370
     0
100
AcDbLine
 10
150408.95225
 20
74792.00700000001
 30
0.0
 11
150408.95225
 21
74845.99299999999
 31
0.0
  0
ARC
  5
B3D
330
C02
100
AcDbEntity
  8
0
 62
     7
420
 16777215
370
     0
100
AcDbCircle
 10
150308.94625
 20
74792.00700000001
 30
0.0
 40
100.0
100
AcDbArc
 50
270.0
 51
0.0000029999999864
  0
LINE
  5
B3E
330
C02
100
AcDbEntity
  8
0
 62
     7
420
 16777215
370
     0
100
AcDbLine
 10
150608.94925
 20
75154.00700000001
 30
0.0
 11
150408.95225
 21
75154.00700000001
 31
0.0
  0
ARC
  5
B3F
330
C02
100
AcDbEntity
  8
0
 62
     7
420
 16777215
370
     0
100
AcDbCircle
 10
151597.01725
 20
75000.0
 30
0.0
 40
1000.0
100
AcDbArc
 50
188.858807
 51
171.141194
  0
LINE
  5
B40
330
C02
100
AcDbEntity
  8
0
 62
     7
420
 16777215
370
     0
100
AcDbLine
 10
150408.95225
 20
74845.99299999999
 30
0.0
 11
150608.94925
 21
74845.99299999999
 31
0.0
  0
LINE
  5
B41
330
C02
100
AcDbEntity
  8
0
 62
     7
420
 16777215
370
     0
100
AcDbLine
 10
150002.98275
 20
74692.0
 30
0.0
 11
150002.98275
 21
75308.0
 31
0.0
  0
LINE
  5
B42
330
C02
100
AcDbEntity
  8
0
 62
     7
420
 16777215
370
     0
100
AcDbLine
 10
150308.94625
 20
75307.99900000001
 30
0.0
 11
150002.98275
 21
75308.0
 31
0.0
  0
LINE
  5
B43
330
C02
100
AcDbEntity
  8
0
 62
     7
420
 16777215
370
     0
100
AcDbLine
 10
150408.95225
 20
75154.00700000001
 30
0.0
 11
150408.95225
 21
75207.99299999999
 31
0.0
  0
ARC
  5
B44
330
C02
100
AcDbEntity
  8
0
 62
     7
420
 16777215
370
     0
100
AcDbCircle
 10
150308.94625
 20
75207.99299999999
 30
0.0
 40
100.0
100
AcDbArc
 50
0.0000029999999864
 51
90.00000499999999
  0
LINE
  5
B46
330
C02
100
AcDbEntity
  8
0
 62
     7
420
 16777215
370
     0
100
AcDbLine
 10
157500.0
 20
80000.0
 30
0.0
 11
168500.0
 21
80000.0
 31
0.0
  0
LINE
  5
B47
330
C02
100
AcDbEntity
  8
0
 62
     7
420
 16777215
370
     0
100
AcDbLine
 10
157500.0
 20
70000.0
 30
0.0
 11
168500.0
 21
70000.0
 31
0.0
  0
LINE
  5
B49
330
C02
100
AcDbEntity
  8
0
 62
     7
420
 16777215
370
     0
100
AcDbLine
 10
157500.0
 20
70000.0
 30
0.0
 11
157500.0
 21
80000.0
 31
0.0
  0
LINE
  5
B5E
330
C02
100
AcDbEntity
  8
0
 62
     7
420
 16777215
370
     0
100
AcDbLine
 10
161191.05375
 20
74692.00099999999
 30
0.0
 11
161497.01725
 21
74692.0
 31
0.0
  0
LINE
  5
B5F
330
C02
100
AcDbEntity
  8
0
 62
     7
420
 16777215
370
     0
100
AcDbLine
 10
161091.04775
 20
74845.99299999999
 30
0.0
 11
161091.04775
 21
74792.00700000001
 31
0.0
  0
ARC
  5
B60
330
C02
100
AcDbEntity
  8
0
 62
     7
420
 16777215
370
     0
100
AcDbCircle
 10
161191.05375
 20
74792.00700000001
 30
0.0
 40
100.0
100
AcDbArc
 50
180.000003
 51
270.000005
  0
LINE
  5
B61
330
C02
100
AcDbEntity
  8
0
 62
     7
420
 16777215
370
     0
100
AcDbLine
 10
161497.01725
 20
75308.0
 30
0.0
 11
161191.05375
 21
75307.99900000001
 31
0.0
  0
LINE
  5
B62
330
C02
100
AcDbEntity
  8
0
 62
     7
420
 16777215
370
     0
100
AcDbLine
 10
161091.04775
 20
75207.99299999999
 30
0.0
 11
161091.04775
 21
75154.00700000001
 31
0.0
  0
ARC
  5
B63
330
C02
100
AcDbEntity
  8
0
 62
     7
420
 16777215
370
     0
100
AcDbCircle
 10
161191.05375
 20
75207.99299999999
 30
0.0
 40
100.0
100
AcDbArc
 50
90.0
 51
180.000003
  0
LINE
  5
B64
330
C02
100
AcDbEntity
  8
0
 62
     7
420
 16777215
370
     0
100
AcDbLine
 10
160891.05075
 20
74845.99299999999
 30
0.0
 11
161091.04775
 21
74845.99299999999
 31
0.0
  0
ARC
  5
B65
330
C02
100
AcDbEntity
  8
0
 62
     7
420
 16777215
370
     0
100
AcDbCircle
 10
159902.98275
 20
75000.0
 30
0.0
 40
1000.0
100
AcDbArc
 50
8.858806999999999
 51
351.141194
  0
LINE
  5
B66
330
C02
100
AcDbEntity
  8
0
 62
     7
420
 16777215
370
     0
100
AcDbLine
 10
161091.04775
 20
75154.00700000001
 30
0.0
 11
160891.05075
 21
75154.00700000001
 31
0.0
  0
LINE
  5
B67
330
C02
100
AcDbEntity
  8
0
 62
     7
420
 16777215
370
     0
100
AcDbLine
 10
161497.01725
 20
75308.0
 30
0.0
 11
161497.01725
 21
74692.0
 31
0.0
  0
ARC
  5
B68
330
C02
100
AcDbEntity
  8
0
 62
     7
420
 16777215
370
     0
100
AcDbCircle
 10
164808.94625
 20
74792.00700000001
 30
0.0
 40
100.0
100
AcDbArc
 50
270.0
 51
0.0000029999999864
  0
LINE
  5
B69
330
C02
100
AcDbEntity
  8
0
 62
     7
420
 16777215
370
     0
100
AcDbLine
 10
165108.94925
 20
75154.00700000001
 30
0.0
 11
164908.95225
 21
75154.00700000001
 31
0.0
  0
ARC
  5
B6A
330
C02
100
AcDbEntity
  8
0
 62
     7
420
 16777215
370
     0
100
AcDbCircle
 10
166097.01725
 20
75000.0
 30
0.0
 40
1000.0
100
AcDbArc
 50
188.858807
 51
171.141194
  0
LINE
  5
B6B
330
C02
100
AcDbEntity
  8
0
 62
     7
420
 16777215
370
     0
100
AcDbLine
 10
164908.95225
 20
74845.99299999999
 30
0.0
 11
165108.94925
 21
74845.99299999999
 31
0.0
  0
LINE
  5
B6C
330
C02
100
AcDbEntity
  8
0
 62
     7
420
 16777215
370
     0
100
AcDbLine
 10
164502.98275
 20
74692.0
 30
0.0
 11
164502.98275
 21
75308.0
 31
0.0
  0
LINE
  5
B6D
330
C02
100
AcDbEntity
  8
0
 62
     7
420
 16777215
370
     0
100
AcDbLine
 10
164808.94625
 20
75307.99900000001
 30
0.0
 11
164502.98275
 21
75308.0
 31
0.0
  0
LINE
  5
B6E
330
C02
100
AcDbEntity
  8
0
 62
     7
420
 16777215
370
     0
100
AcDbLine
 10
164908.95225
 20
75154.00700000001
 30
0.0
 11
164908.95225
 21
75207.99299999999
 31
0.0
  0
ARC
  5
B6F
330
C02
100
AcDbEntity
  8
0
 62
     7
420
 16777215
370
     0
100
AcDbCircle
 10
164808.94625
 20
75207.99299999999
 30
0.0
 40
100.0
100
AcDbArc
 50
0.0000029999999864
 51
90.00000499999999
  0
LINE
  5
B70
330
C02
100
AcDbEntity
  8
0
 62
     7
420
 16777215
370
     0
100
AcDbLine
 10
164502.98275
 20
74692.0
 30
0.0
 11
164808.94625
 21
74692.00099999999
 31
0.0
  0
LINE
  5
B71
330
C02
100
AcDbEntity
  8
0
 62
     7
420
 16777215
370
     0
100
AcDbLine
 10
164908.95225
 20
74792.00700000001
 30
0.0
 11
164908.95225
 21
74845.99299999999
 31
0.0
  0
LINE
  5
B72
330
C02
100
AcDbEntity
  8
0
 62
     7
420
 16777215
370
     0
100
AcDbLine
 10
146691.05375
 20
89692.00099999999
 30
0.0
 11
147500.0617489314
 21
89692.24786301616
 31
0.0
  0
LINE
  5
B73
330
C02
100
AcDbEntity
  8
0
 62
     7
420
 16777215
370
     0
100
AcDbLine
 10
146591.04775
 20
89845.99299999999
 30
0.0
 11
146591.04775
 21
89792.00700000001
 31
0.0
  0
ARC
  5
B74
330
C02
100
AcDbEntity
  8
0
 62
     7
420
 16777215
370
     0
100
AcDbCircle
 10
146691.05375
 20
89792.00700000001
 30
0.0
 40
100.0
100
AcDbArc
 50
180.000003
 51
270.000005
  0
LINE
  5
B75
330
C02
100
AcDbEntity
  8
0
 62
     7
420
 16777215
370
     0
100
AcDbLine
 10
147500.0617489314
 20
90308.24786301616
 30
0.0
 11
146691.05375
 21
90307.99900000001
 31
0.0
  0
LINE
  5
B76
330
C02
100
AcDbEntity
  8
0
 62
     7
420
 16777215
370
     0
100
AcDbLine
 10
146591.04775
 20
90207.99299999999
 30
0.0
 11
146591.04775
 21
90154.00700000001
 31
0.0
  0
ARC
  5
B77
330
C02
100
AcDbEntity
  8
0
 62
     7
420
 16777215
370
     0
100
AcDbCircle
 10
146691.05375
 20
90207.99299999999
 30
0.0
 40
100.0
100
AcDbArc
 50
90.0
 51
180.000003
  0
LINE
  5
B78
330
C02
100
AcDbEntity
  8
0
 62
     7
420
 16777215
370
     0
100
AcDbLine
 10
146391.05075
 20
89845.99299999999
 30
0.0
 11
146591.04775
 21
89845.99299999999
 31
0.0
  0
ARC
  5
B79
330
C02
100
AcDbEntity
  8
0
 62
     7
420
 16777215
370
     0
100
AcDbCircle
 10
145402.98275
 20
90000.0
 30
0.0
 40
1000.0
100
AcDbArc
 50
8.858806999999999
 51
351.141194
  0
LINE
  5
B7A
330
C02
100
AcDbEntity
  8
0
 62
     7
420
 16777215
370
     0
100
AcDbLine
 10
146591.04775
 20
90154.00700000001
 30
0.0
 11
146391.05075
 21
90154.00700000001
 31
0.0
  0
LINE
  5
B7B
330
C02
100
AcDbEntity
  8
0
 62
     7
420
 16777215
370
     0
100
AcDbLine
 10
147500.0617489314
 20
90308.24786301616
 30
0.0
 11
147500.0617489314
 21
89692.24786301616
 31
0.0
  0
LINE
  5
B86
330
C02
100
AcDbEntity
  8
0
 62
     7
420
 16777215
370
     0
100
AcDbLine
 10
150609.0109989314
 20
90146.25486301618
 30
0.0
 11
150409.0139989314
 21
90146.25486301618
 31
0.0
  0
ARC
  5
B87
330
C02
100
AcDbEntity
  8
0
 62
     7
420
 16777215
370
     0
100
AcDbCircle
 10
151597.0789989314
 20
89992.24786301616
 30
0.0
 40
1000.0
100
AcDbArc
 50
188.858807
 51
171.141194
  0
LINE
  5
B88
330
C02
100
AcDbEntity
  8
0
 62
     7
420
 16777215
370
     0
100
AcDbLine
 10
150409.0139989314
 20
89838.24086301615
 30
0.0
 11
150609.0109989314
 21
89838.24086301615
 31
0.0
  0
LINE
  5
B89
330
C02
100
AcDbEntity
  8
0
 62
     7
420
 16777215
370
     0
100
AcDbLine
 10
149500.0
 20
89684.0
 30
0.0
 11
149500.0
 21
90300.0
 31
0.0
  0
LINE
  5
B8A
330
C02
100
AcDbEntity
  8
0
 62
     7
420
 16777215
370
     0
100
AcDbLine
 10
150309.0079989314
 20
90300.24686301617
 30
0.0
 11
149500.0
 21
90300.0
 31
0.0
  0
LINE
  5
B8B
330
C02
100
AcDbEntity
  8
0
 62
     7
420
 16777215
370
     0
100
AcDbLine
 10
150409.0139989314
 20
90146.25486301618
 30
0.0
 11
150409.0139989314
 21
90200.24086301615
 31
0.0
  0
ARC
  5
B8C
330
C02
100
AcDbEntity
  8
0
 62
     7
420
 16777215
370
     0
100
AcDbCircle
 10
150309.0079989314
 20
90200.24086301615
 30
0.0
 40
100.0
100
AcDbArc
 50
0.0000029999999864
 51
90.00000499999999
  0
LINE
  5
B8D
330
C02
100
AcDbEntity
  8
0
 62
     7
420
 16777215
370
     0
100
AcDbLine
 10
149500.0
 20
89684.0
 30
0.0
 11
150309.0079989314
 21
89684.24886301615
 31
0.0
  0
LINE
  5
B8E
330
C02
100
AcDbEntity
  8
0
 62
     7
420
 16777215
370
     0
100
AcDbLine
 10
150409.0139989314
 20
89784.25486301618
 30
0.0
 11
150409.0139989314
 21
89838.24086301615
 31
0.0
  0
ARC
  5
B8F
330
C02
100
AcDbEntity
  8
0
 62
     7
420
 16777215
370
     0
100
AcDbCircle
 10
150309.0079989314
 20
89784.25486301618
 30
0.0
 40
100.0
100
AcDbArc
 50
270.0
 51
0.0000029999999864
  0
LINE
  5
B9A
330
C02
100
AcDbEntity
  8
0
 62
     7
420
 16777215
370
     0
100
AcDbLine
 10
160890.9890010686
 20
89845.74513698382
 30
0.0
 11
161090.9860010686
 21
89845.74513698382
 31
0.0
  0
ARC
  5
B9B
330
C02
100
AcDbEntity
  8
0
 62
     7
420
 16777215
370
     0
100
AcDbCircle
 10
159902.9210010686
 20
89999.75213698384
 30
0.0
 40
1000.0
100
AcDbArc
 50
8.858806999999999
 51
351.141194
  0
LINE
  5
B9C
330
C02
100
AcDbEntity
  8
0
 62
     7
420
 16777215
370
     0
100
AcDbLine
 10
161090.9860010686
 20
90153.75913698385
 30
0.0
 11
160890.9890010686
 21
90153.75913698385
 31
0.0
  0
LINE
  5
B9D
330
C02
100
AcDbEntity
  8
0
 62
     7
420
 16777215
370
     0
100
AcDbLine
 10
162000.0
 20
90308.0
 30
0.0
 11
162000.0
 21
89692.0
 31
0.0
  0
LINE
  5
B9E
330
C02
100
AcDbEntity
  8
0
 62
     7
420
 16777215
370
     0
100
AcDbLine
 10
161190.9920010686
 20
89691.75313698383
 30
0.0
 11
162000.0
 21
89692.0
 31
0.0
  0
LINE
  5
B9F
330
C02
100
AcDbEntity
  8
0
 62
     7
420
 16777215
370
     0
100
AcDbLine
 10
161090.9860010686
 20
89845.74513698382
 30
0.0
 11
161090.9860010686
 21
89791.75913698385
 31
0.0
  0
ARC
  5
BA0
330
C02
100
AcDbEntity
  8
0
 62
     7
420
 16777215
370
     0
100
AcDbCircle
 10
161190.9920010686
 20
89791.75913698385
 30
0.0
 40
100.0
100
AcDbArc
 50
180.000003
 51
270.000005
  0
LINE
  5
BA1
330
C02
100
AcDbEntity
  8
0
 62
     7
420
 16777215
370
     0
100
AcDbLine
 10
162000.0
 20
90308.0
 30
0.0
 11
161190.9920010686
 21
90307.75113698385
 31
0.0
  0
LINE
  5
BA2
330
C02
100
AcDbEntity
  8
0
 62
     7
420
 16777215
370
     0
100
AcDbLine
 10
161090.9860010686
 20
90207.74513698382
 30
0.0
 11
161090.9860010686
 21
90153.75913698385
 31
0.0
  0
ARC
  5
BA3
330
C02
100
AcDbEntity
  8
0
 62
     7
420
 16777215
370
     0
100
AcDbCircle
 10
161190.9920010686
 20
90207.74513698382
 30
0.0
 40
100.0
100
AcDbArc
 50
90.0
 51
180.000003
  0
LINE
  5
BA4
330
C02
100
AcDbEntity
  8
0
 62
     7
420
 16777215
370
     0
100
AcDbLine
 10
164000.0131478167
 20
89696.70906564007
 30
0.0
 11
164000.0131478167
 21
90312.70906564007
 31
0.0
  0
LINE
  5
BA5
330
C02
100
AcDbEntity
  8
0
 62
     7
420
 16777215
370
     0
100
AcDbLine
 10
164809.0211467481
 20
90312.95592865624
 30
0.0
 11
164000.0131478167
 21
90312.70906564007
 31
0.0
  0
LINE
  5
BA6
330
C02
100
AcDbEntity
  8
0
 62
     7
420
 16777215
370
     0
100
AcDbLine
 10
164909.0271467481
 20
90158.96392865625
 30
0.0
 11
164909.0271467481
 21
90212.94992865622
 31
0.0
  0
ARC
  5
BA7
330
C02
100
AcDbEntity
  8
0
 62
     7
420
 16777215
370
     0
100
AcDbCircle
 10
164809.0211467481
 20
90212.94992865622
 30
0.0
 40
100.0
100
AcDbArc
 50
0.0000029999999864
 51
90.00000499999999
  0
LINE
  5
BA8
330
C02
100
AcDbEntity
  8
0
 62
     7
420
 16777215
370
     0
100
AcDbLine
 10
164000.0131478167
 20
89696.70906564007
 30
0.0
 11
164809.0211467481
 21
89696.95792865622
 31
0.0
  0
LINE
  5
BA9
330
C02
100
AcDbEntity
  8
0
 62
     7
420
 16777215
370
     0
100
AcDbLine
 10
164909.0271467481
 20
89796.96392865625
 30
0.0
 11
164909.0271467481
 21
89850.94992865622
 31
0.0
  0
ARC
  5
BAA
330
C02
100
AcDbEntity
  8
0
 62
     7
420
 16777215
370
     0
100
AcDbCircle
 10
164809.0211467481
 20
89796.96392865625
 30
0.0
 40
100.0
100
AcDbArc
 50
270.0
 51
0.0000029999999864
  0
LINE
  5
BAB
330
C02
100
AcDbEntity
  8
0
 62
     7
420
 16777215
370
     0
100
AcDbLine
 10
165109.0241467481
 20
90158.96392865625
 30
0.0
 11
164909.0271467481
 21
90158.96392865625
 31
0.0
  0
ARC
  5
BAC
330
C02
100
AcDbEntity
  8
0
 62
     7
420
 16777215
370
     0
100
AcDbCircle
 10
166097.0921467481
 20
90004.95692865623
 30
0.0
 40
1000.0
100
AcDbArc
 50
188.858807
 51
171.141194
  0
LINE
  5
BAD
330
C02
100
AcDbEntity
  8
0
 62
     7
420
 16777215
370
     0
100
AcDbLine
 10
164909.0271467481
 20
89850.94992865622
 30
0.0
 11
165109.0241467481
 21
89850.94992865622
 31
0.0
  0
LINE
  5
BAE
330
C02
100
AcDbEntity
  8
0
 62
     7
420
 16777215
370
     0
100
AcDbLine
 10
157500.0
 20
110000.0
 30
0.0
 11
168500.0
 21
110000.0
 31
0.0
  0
LINE
  5
BAF
330
C02
100
AcDbEntity
  8
0
 62
     7
420
 16777215
370
     0
100
AcDbLine
 10
157500.0
 20
100000.0
 30
0.0
 11
168500.0
 21
100000.0
 31
0.0
  0
LINE
  5
BB0
330
C02
100
AcDbEntity
  8
0
 62
     7
420
 16777215
370
     0
100
AcDbLine
 10
157477.0595272281
 20
99994.25878959846
 30
0.0
 11
157477.0595272281
 21
109994.2587895985
 31
0.0
  0
LINE
  5
BB1
330
C02
100
AcDbEntity
  8
0
 62
     7
420
 16777215
370
     0
100
AcDbLine
 10
168494.4818614764
 20
99996.68079994919
 30
0.0
 11
168494.4818614764
 21
109996.6807999492
 31
0.0
  0
LINE
  5
BB2
330
C02
100
AcDbEntity
  8
0
 62
     7
420
 16777215
370
     0
100
AcDbLine
 10
146439.5285005343
 20
104845.993
 30
0.0
 11
146639.5255005343
 21
104845.993
 31
0.0
  0
ARC
  5
BB3
330
C02
100
AcDbEntity
  8
0
 62
     7
420
 16777215
370
     0
100
AcDbCircle
 10
145451.4605005343
 20
105000.0
 30
0.0
 40
1000.0
100
AcDbArc
 50
8.858806999999999
 51
351.141194
  0
LINE
  5
BB4
330
C02
100
AcDbEntity
  8
0
 62
     7
420
 16777215
370
     0
100
AcDbLine
 10
146639.5255005343
 20
105154.007
 30
0.0
 11
146439.5285005343
 21
105154.007
 31
0.0
  0
LINE
  5
BB6
330
C02
100
AcDbEntity
  8
0
 62
     7
420
 16777215
370
     0
100
AcDbLine
 10
146739.5315005343
 20
104692.001
 30
0.0
 11
147470.001
 21
104692.2238975536
 31
0.0
  0
LINE
  5
BB7
330
C02
100
AcDbEntity
  8
0
 62
     7
420
 16777215
370
     0
100
AcDbLine
 10
146639.5255005343
 20
104845.993
 30
0.0
 11
146639.5255005343
 21
104792.007
 31
0.0
  0
ARC
  5
BB8
330
C02
100
AcDbEntity
  8
0
 62
     7
420
 16777215
370
     0
100
AcDbCircle
 10
146739.5315005343
 20
104792.007
 30
0.0
 40
100.0
100
AcDbArc
 50
180.000003
 51
270.000005
  0
LINE
  5
BB9
330
C02
100
AcDbEntity
  8
0
 62
     7
420
 16777215
370
     0
100
AcDbLine
 10
147470.001
 20
105308.2237033937
 30
0.0
 11
146739.5315005343
 21
105307.999
 31
0.0
  0
LINE
  5
BBA
330
C02
100
AcDbEntity
  8
0
 62
     7
420
 16777215
370
     0
100
AcDbLine
 10
146639.5255005343
 20
105207.993
 30
0.0
 11
146639.5255005343
 21
105154.007
 31
0.0
  0
ARC
  5
BBB
330
C02
100
AcDbEntity
  8
0
 62
     7
420
 16777215
370
     0
100
AcDbCircle
 10
146739.5315005343
 20
105207.993
 30
0.0
 40
100.0
100
AcDbArc
 50
90.0
 51
180.000003
  0
LINE
  5
BBC
330
C02
100
AcDbEntity
  8
0
 62
     7
420
 16777215
370
     0
100
AcDbLine
 10
160950.9890010686
 20
104847.7451369838
 30
0.0
 11
161150.9860010686
 21
104847.7451369838
 31
0.0
  0
ARC
  5
BBD
330
C02
100
AcDbEntity
  8
0
 62
     7
420
 16777215
370
     0
100
AcDbCircle
 10
159962.9210010686
 20
105001.7521369838
 30
0.0
 40
1000.0
100
AcDbArc
 50
8.858806999999999
 51
351.141194
  0
LINE
  5
BBE
330
C02
100
AcDbEntity
  8
0
 62
     7
420
 16777215
370
     0
100
AcDbLine
 10
161150.9860010686
 20
105155.7591369838
 30
0.0
 11
160950.9890010686
 21
105155.7591369838
 31
0.0
  0
LINE
  5
BC0
330
C02
100
AcDbEntity
  8
0
 62
     7
420
 16777215
370
     0
100
AcDbLine
 10
161250.9920010686
 20
104693.7531369838
 30
0.0
 11
161970.001
 21
104693.9725374476
 31
0.0
  0
LINE
  5
BC1
330
C02
100
AcDbEntity
  8
0
 62
     7
420
 16777215
370
     0
100
AcDbLine
 10
161150.9860010686
 20
104847.7451369838
 30
0.0
 11
161150.9860010686
 21
104793.7591369838
 31
0.0
  0
ARC
  5
BC2
330
C02
100
AcDbEntity
  8
0
 62
     7
420
 16777215
370
     0
100
AcDbCircle
 10
161250.9920010686
 20
104793.7591369838
 30
0.0
 40
100.0
100
AcDbArc
 50
180.000003
 51
270.000005
  0
LINE
  5
BC3
330
C02
100
AcDbEntity
  8
0
 62
     7
420
 16777215
370
     0
100
AcDbLine
 10
161970.001
 20
105309.9723149553
 30
0.0
 11
161250.9920010686
 21
105309.7511369838
 31
0.0
  0
LINE
  5
BC4
330
C02
100
AcDbEntity
  8
0
 62
     7
420
 16777215
370
     0
100
AcDbLine
 10
161150.9860010686
 20
105209.7451369838
 30
0.0
 11
161150.9860010686
 21
105155.7591369838
 31
0.0
  0
ARC
  5
BC5
330
C02
100
AcDbEntity
  8
0
 62
     7
420
 16777215
370
     0
100
AcDbCircle
 10
161250.9920010686
 20
105209.7451369838
 30
0.0
 40
100.0
100
AcDbArc
 50
90.0
 51
180.000003
  0
LINE
  5
BC7
330
C02
100
AcDbEntity
  8
0
 62
     7
420
 16777215
370
     0
100
AcDbLine
 10
150260.4684994657
 20
105307.999
 30
0.0
 11
149529.999
 21
105307.7761024463
 31
0.0
  0
LINE
  5
BC8
330
C02
100
AcDbEntity
  8
0
 62
     7
420
 16777215
370
     0
100
AcDbLine
 10
150360.4744994657
 20
105154.007
 30
0.0
 11
150360.4744994657
 21
105207.993
 31
0.0
  0
ARC
  5
BC9
330
C02
100
AcDbEntity
  8
0
 62
     7
420
 16777215
370
     0
100
AcDbCircle
 10
150260.4684994657
 20
105207.993
 30
0.0
 40
100.0
100
AcDbArc
 50
0.0000029999999864
 51
90.00000499999999
  0
LINE
  5
BCA
330
C02
100
AcDbEntity
  8
0
 62
     7
420
 16777215
370
     0
100
AcDbLine
 10
149529.999
 20
104691.7762966063
 30
0.0
 11
150260.4684994657
 21
104692.001
 31
0.0
  0
LINE
  5
BCB
330
C02
100
AcDbEntity
  8
0
 62
     7
420
 16777215
370
     0
100
AcDbLine
 10
150360.4744994657
 20
104792.007
 30
0.0
 11
150360.4744994657
 21
104845.993
 31
0.0
  0
ARC
  5
BCC
330
C02
100
AcDbEntity
  8
0
 62
     7
420
 16777215
370
     0
100
AcDbCircle
 10
150260.4684994657
 20
104792.007
 30
0.0
 40
100.0
100
AcDbArc
 50
270.0
 51
0.0000029999999864
  0
LINE
  5
BCD
330
C02
100
AcDbEntity
  8
0
 62
     7
420
 16777215
370
     0
100
AcDbLine
 10
150560.4714994657
 20
105154.007
 30
0.0
 11
150360.4744994657
 21
105154.007
 31
0.0
  0
ARC
  5
BCE
330
C02
100
AcDbEntity
  8
0
 62
     7
420
 16777215
370
     0
100
AcDbCircle
 10
151548.5394994657
 20
105000.0
 30
0.0
 40
1000.0
100
AcDbArc
 50
188.858807
 51
171.141194
  0
LINE
  5
BCF
330
C02
100
AcDbEntity
  8
0
 62
     7
420
 16777215
370
     0
100
AcDbLine
 10
150360.4744994657
 20
104845.993
 30
0.0
 11
150560.4714994657
 21
104845.993
 31
0.0
  0
LINE
  5
BD1
330
C02
100
AcDbEntity
  8
0
 62
     7
420
 16777215
370
     0
100
AcDbLine
 10
164799.0079989314
 20
105310.2468630162
 30
0.0
 11
164029.999
 21
105310.0122054093
 31
0.0
  0
LINE
  5
BD2
330
C02
100
AcDbEntity
  8
0
 62
     7
420
 16777215
370
     0
100
AcDbLine
 10
164899.0139989314
 20
105156.2548630162
 30
0.0
 11
164899.0139989314
 21
105210.2408630162
 31
0.0
  0
ARC
  5
BD3
330
C02
100
AcDbEntity
  8
0
 62
     7
420
 16777215
370
     0
100
AcDbCircle
 10
164799.0079989314
 20
105210.2408630162
 30
0.0
 40
100.0
100
AcDbArc
 50
0.0000029999999864
 51
90.00000499999999
  0
LINE
  5
BD4
330
C02
100
AcDbEntity
  8
0
 62
     7
420
 16777215
370
     0
100
AcDbLine
 10
164029.999
 20
104694.0123042934
 30
0.0
 11
164799.0079989314
 21
104694.2488630162
 31
0.0
  0
LINE
  5
BD5
330
C02
100
AcDbEntity
  8
0
 62
     7
420
 16777215
370
     0
100
AcDbLine
 10
164899.0139989314
 20
104794.2548630162
 30
0.0
 11
164899.0139989314
 21
104848.2408630162
 31
0.0
  0
ARC
  5
BD6
330
C02
100
AcDbEntity
  8
0
 62
     7
420
 16777215
370
     0
100
AcDbCircle
 10
164799.0079989314
 20
104794.2548630162
 30
0.0
 40
100.0
100
AcDbArc
 50
270.0
 51
0.0000029999999864
  0
LINE
  5
BD7
330
C02
100
AcDbEntity
  8
0
 62
     7
420
 16777215
370
     0
100
AcDbLine
 10
165099.0109989314
 20
105156.2548630162
 30
0.0
 11
164899.0139989314
 21
105156.2548630162
 31
0.0
  0
ARC
  5
BD8
330
C02
100
AcDbEntity
  8
0
 62
     7
420
 16777215
370
     0
100
AcDbCircle
 10
166087.0789989314
 20
105002.2478630162
 30
0.0
 40
1000.0
100
AcDbArc
 50
188.858807
 51
171.141194
  0
LINE
  5
BD9
330
C02
100
AcDbEntity
  8
0
 62
     7
420
 16777215
370
     0
100
AcDbLine
 10
164899.0139989314
 20
104848.2408630162
 30
0.0
 11
165099.0109989314
 21
104848.2408630162
 31
0.0
  0
LINE
  5
BDA
330
C02
100
AcDbEntity
  8
0
 62
     7
420
 16777215
370
     0
100
AcDbLine
 10
147470.001
 20
105308.2237033937
 30
0.0
 11
147470.001
 21
105705.4496009473
 31
0.0
  0
LINE
  5
BDB
330
C02
100
AcDbEntity
  8
0
 62
     7
420
 16777215
370
     0
100
AcDbLine
 10
149530.002
 20
105308.2237033937
 30
0.0
 11
149530.002
 21
105705.002
 31
0.0
  0
LINE
  5
BDD
330
C02
100
AcDbEntity
  8
0
 62
     7
420
 16777215
370
     0
100
AcDbLine
 10
161970.001
 20
105309.9723149553
 30
0.0
 11
161970.001
 21
105608.9478524029
 31
0.0
  0
LINE
  5
BDF
330
C02
100
AcDbEntity
  8
0
 62
     7
420
 16777215
370
     0
100
AcDbLine
 10
164029.999
 20
105310.0122054093
 30
0.0
 11
164029.999
 21
105605.003
 31
0.0
  0
LINE
  5
BE0
330
C02
100
AcDbEntity
  8
0
 62
     7
420
 16777215
370
     0
100
AcDbLine
 10
157500.0
 20
65000.0
 30
0.0
 11
168500.0
 21
65000.0
 31
0.0
  0
LINE
  5
BE1
330
C02
100
AcDbEntity
  8
0
 62
     7
420
 16777215
370
     0
100
AcDbLine
 10
157500.0
 20
55000.0
 30
0.0
 11
168500.0
 21
55000.0
 31
0.0
  0
LINE
  5
BE2
330
C02
100
AcDbEntity
  8
0
 62
     7
420
 16777215
370
     0
100
AcDbLine
 10
168500.0
 20
55000.0
 30
0.0
 11
168500.0
 21
65000.0
 31
0.0
  0
LINE
  5
BE3
330
C02
100
AcDbEntity
  8
0
 62
     7
420
 16777215
370
     0
100
AcDbLine
 10
157500.0
 20
55000.0
 30
0.0
 11
157500.0
 21
65000.0
 31
0.0
  0
ENDSEC
  0
SECTION
  2
OBJECTS
  0
DICTIONARY
  5
BF0
330
0
100
AcDbDictionary
281
     1
  3
ACAD_DETAILVIEWSTYLE
350
C91
  3
ACAD_GROUP
350
BF1
  3
ACAD_LAYOUT
350
BFD
  3
ACAD_MATERIAL
350
C26
  3
ACAD_MLEADERSTYLE
350
C90
  3
ACAD_MLINESTYLE
350
BFA
  3
ACAD_PLOTSETTINGS
350
BFC
  3
ACAD_PLOTSTYLENAME
350
BF2
  3
ACAD_SCALELIST
350
C2A
  3
ACAD_SECTIONVIEWSTYLE
350
C92
  3
ACAD_TABLESTYLE
350
C8F
  3
ACAD_VISUALSTYLE
350
C0D
  3
AcDbVariableDictionary
350
C8D
  3
QCAD_OBJECTS
350
C4E
  0
SUN
  5
C4C
330
C0C
100
AcDbSun
 90
        1
290
     0
 63
     7
421
 16777215
 40
1.0
291
     1
 91
  2455826
 92
 54000000
292
     0
 70
     2
 71
   256
280
     1
  0
DICTIONARY
  5
C91
102
{ACAD_REACTORS
330
BF0
102
}
330
BF0
100
AcDbDictionary
281
     1
  0
DICTIONARY
  5
BF1
102
{ACAD_REACTORS
330
BF0
102
}
330
BF0
100
AcDbDictionary
281
     1
  0
DICTIONARY
  5
BFD
102
{ACAD_REACTORS
330
BF0
102
}
330
BF0
100
AcDbDictionary
281
     1
  3
Layout1
350
C01
  3
Layout2
350
C09
  3
Model
350
C05
  0
DICTIONARY
  5
C26
102
{ACAD_REACTORS
330
BF0
102
}
330
BF0
100
AcDbDictionary
281
     1
  3
ByBlock
350
C28
  3
ByLayer
350
C27
  3
Global
350
C29
  0
DICTIONARY
  5
C90
102
{ACAD_REACTORS
330
BF0
102
}
330
BF0
100
AcDbDictionary
281
     1
  0
DICTIONARY
  5
BFA
102
{ACAD_REACTORS
330
BF0
102
}
330
BF0
100
AcDbDictionary
281
     1
  3
Standard
350
BFB
  0
DICTIONARY
  5
BFC
102
{ACAD_REACTORS
330
BF0
102
}
330
BF0
100
AcDbDictionary
281
     1
  0
ACDBDICTIONARYWDFLT
  5
BF2
102
{ACAD_REACTORS
330
BF0
102
}
330
BF0
100
AcDbDictionary
281
     1
  3
Normal
350
BF3
100
AcDbDictionaryWithDefault
340
BF3
  0
DICTIONARY
  5
C2A
102
{ACAD_REACTORS
330
BF0
102
}
330
BF0
100
AcDbDictionary
281
     1
  3
A0
350
C2B
  3
A1
350
C2C
  3
A2
350
C2D
  3
A3
350
C2E
  3
A4
350
C2F
  3
A5
350
C30
  3
A6
350
C31
  3
A7
350
C32
  3
A8
350
C33
  3
A9
350
C34
  3
B0
350
C35
  3
B1
350
C36
  3
B2
350
C37
  3
B3
350
C38
  3
B4
350
C39
  3
B5
350
C3A
  3
B6
350
C3B
  3
B7
350
C3C
  3
B8
350
C3D
  3
B9
350
C3E
  3
C0
350
C3F
  3
C1
350
C40
  3
C2
350
C41
  3
C3
350
C42
  3
C4
350
C43
  3
C5
350
C44
  3
C6
350
C45
  3
C7
350
C46
  3
C8
350
C47
  3
C9
350
C48
  3
D0
350
C49
  3
D1
350
C4A
  3
D2
350
C4B
  0
DICTIONARY
  5
C92
102
{ACAD_REACTORS
330
BF0
102
}
330
BF0
100
AcDbDictionary
281
     1
  0
DICTIONARY
  5
C8F
102
{ACAD_REACTORS
330
BF0
102
}
330
BF0
100
AcDbDictionary
281
     1
  0
DICTIONARY
  5
C0D
102
{ACAD_REACTORS
330
BF0
102
}
330
BF0
100
AcDbDictionary
281
     1
  3
2dWireframe
350
C12
  3
Basic
350
C15
  3
Brighten
350
C19
  3
ColorChange
350
C1D
  3
Conceptual
350
C17
  3
Dim
350
C18
  3
EdgeColorOff
350
C20
  3
Facepattern
350
C1C
  3
Flat
350
C0E
  3
FlatWithEdges
350
C0F
  3
Gouraud
350
C10
  3
GouraudWithEdges
350
C11
  3
Hidden
350
C14
  3
JitterOff
350
C1E
  3
Linepattern
350
C1B
  3
OverhangOff
350
C1F
  3
Realistic
350
C16
  3
Shaded
350
C25
  3
Shaded with edges
350
C24
  3
Shades of Gray
350
C21
  3
Sketchy
350
C22
  3
Thicken
350
C1A
  3
Wireframe
350
C13
  3
X-Ray
350
C23
  0
DICTIONARY
  5
C8D
102
{ACAD_REACTORS
330
BF0
102
}
330
BF0
100
AcDbDictionary
281
     1
  3
CANNOSCALE
350
C8E
  0
DICTIONARY
  5
C4E
102
{ACAD_REACTORS
330
BF0
102
}
330
BF0
100
AcDbDictionary
281
     1
  3
Grid/DisplayGrid00
350
C4F
  3
Grid/DisplayGrid01
350
C50
  3
Grid/DisplayGrid02
350
C51
  3
Grid/DisplayGrid03
350
C52
  3
Grid/GridSpacingX00
350
C53
  3
Grid/GridSpacingX01
350
C54
  3
Grid/GridSpacingX02
350
C55
  3
Grid/GridSpacingX03
350
C56
  3
Grid/GridSpacingY00
350
C57
  3
Grid/GridSpacingY01
350
C58
  3
Grid/GridSpacingY02
350
C59
  3
Grid/GridSpacingY03
350
C5A
  3
Grid/IsometricGrid00
350
C5B
  3
Grid/IsometricGrid01
350
C5C
  3
Grid/IsometricGrid02
350
C5D
  3
Grid/IsometricGrid03
350
C5E
  3
Grid/IsometricProjection00
350
C5F
  3
Grid/IsometricProjection01
350
C60
  3
Grid/IsometricProjection02
350
C61
  3
Grid/IsometricProjection03
350
C62
  3
Grid/MetaGridSpacingX00
350
C63
  3
Grid/MetaGridSpacingX01
350
C64
  3
Grid/MetaGridSpacingX02
350
C65
  3
Grid/MetaGridSpacingX03
350
C66
  3
Grid/MetaGridSpacingY00
350
C67
  3
Grid/MetaGridSpacingY01
350
C68
  3
Grid/MetaGridSpacingY02
350
C69
  3
Grid/MetaGridSpacingY03
350
C6A
  3
MultiPageSettings/Columns
350
C6B
  3
MultiPageSettings/GlueMarginsBottom
350
C6C
  3
MultiPageSettings/GlueMarginsLeft
350
C6D
  3
MultiPageSettings/GlueMarginsRight
350
C6E
  3
MultiPageSettings/GlueMarginsTop
350
C6F
  3
MultiPageSettings/PrintCropMarks
350
C70
  3
MultiPageSettings/Rows
350
C71
  3
PageSettings/OffsetX
350
C72
  3
PageSettings/OffsetY
350
C73
  3
PageSettings/PageOrientation
350
C74
  3
PageSettings/PaperHeight
350
C75
  3
PageSettings/PaperWidth
350
C76
  3
PageSettings/Scale
350
C77
  3
PageSettings/ShowPaperBorders
350
C78
  3
UnitSettings/PaperUnit
350
C79
  0
LAYOUT
  5
C01
102
{ACAD_REACTORS
330
BFD
102
}
330
BFD
100
AcDbPlotSettings
  1

  2
none_device
  4

  6

 40
0.0
 41
0.0
 42
0.0
 43
0.0
 44
0.0
 45
0.0
 46
0.0
 47
0.0
 48
0.0
 49
0.0
140
0.0
141
0.0
142
1.0
143
1.0
 70
   688
 72
     0
 73
     0
 74
     5
  7

 75
    16
 76
     0
 77
     2
 78
   300
147
1.0
148
0.0
149
0.0
100
AcDbLayout
  1
Layout1
 70
     1
 71
     1
 10
0.0
 20
0.0
 11
420.0
 21
297.0
 12
0.0
 22
0.0
 32
0.0
 14
0.0
 24
0.0
 34
0.0
 15
153.5
 25
110.0
 35
2.0
146
0.0
 13
0.0
 23
0.0
 33
0.0
 16
1.0
 26
0.0
 36
0.0
 17
0.0
 27
1.0
 37
0.0
 76
     0
330
BFE
  0
LAYOUT
  5
C09
102
{ACAD_REACTORS
330
BFD
102
}
330
BFD
100
AcDbPlotSettings
  1

  2
none_device
  4

  6

 40
0.0
 41
0.0
 42
0.0
 43
0.0
 44
0.0
 45
0.0
 46
0.0
 47
0.0
 48
0.0
 49
0.0
140
0.0
141
0.0
142
1.0
143
1.0
 70
   688
 72
     0
 73
     0
 74
     5
  7

 75
    16
 76
     0
 77
     2
 78
   300
147
1.0
148
0.0
149
0.0
100
AcDbLayout
  1
Layout2
 70
     1
 71
     2
 10
0.0
 20
0.0
 11
0.0
 21
0.0
 12
0.0
 22
0.0
 32
0.0
 14
0.0
 24
0.0
 34
0.0
 15
0.0
 25
0.0
 35
0.0
146
0.0
 13
0.0
 23
0.0
 33
0.0
 16
1.0
 26
0.0
 36
0.0
 17
0.0
 27
1.0
 37
0.0
 76
     0
330
C06
  0
LAYOUT
  5
C05
102
{ACAD_REACTORS
330
BFD
102
}
330
BFD
100
AcDbPlotSettings
  1

  2
none_device
  4
Letter_(8.50_x_11.00_Inches)
  6

 40
6.35
 41
6.35
 42
6.35000508
 43
6.35000508
 44
215.9
 45
279.4
 46
0.0
 47
0.0
 48
0.0
 49
0.0
140
0.0
141
0.0
142
1.0
143
1.0
 70
  1712
 72
     0
 73
     0
 74
     0
  7

 75
     0
 76
     0
 77
     2
 78
   300
147
1.0
148
0.0
149
0.0
100
AcDbLayout
  1
Model
 70
     1
 71
     0
 10
0.0
 20
0.0
 11
420.0
 21
297.0
 12
0.0
 22
0.0
 32
0.0
 14
0.0
 24
0.0
 34
0.0
 15
153.5
 25
110.0
 35
2.0
146
0.0
 13
0.0
 23
0.0
 33
0.0
 16
1.0
 26
0.0
 36
0.0
 17
0.0
 27
1.0
 37
0.0
 76
     0
330
C02
331
C0C
  0
MATERIAL
  5
C28
102
{ACAD_REACTORS
330
C26
102
}
330
C26
100
AcDbMaterial
  1
ByBlock
 72
     1
 94
      127
  0
MATERIAL
  5
C27
102
{ACAD_REACTORS
330
C26
102
}
330
C26
100
AcDbMaterial
  1
ByLayer
 72
     1
 94
      127
  0
MATERIAL
  5
C29
102
{ACAD_REACTORS
330
C26
102
}
330
C26
100
AcDbMaterial
  1
Global
 72
     1
 94
      127
  0
MLINESTYLE
  5
BFB
102
{ACAD_REACTORS
330
BFA
102
}
330
BFA
100
AcDbMlineStyle
  2
Standard
 70
     0
  3

 62
   256
 51
90.0
 52
90.0
 71
     2
 49
0.5
 62
   256
  6
BYLAYER
 49
-0.5
 62
   256
  6
BYLAYER
  0
ACDBPLACEHOLDER
  5
BF3
102
{ACAD_REACTORS
330
BF2
102
}
330
BF2
  0
SCALE
  5
C2B
102
{ACAD_REACTORS
330
C2A
102
}
330
C2A
100
AcDbScale
 70
     0
300
1:1
140
1.0
141
1.0
290
     1
  0
SCALE
  5
C2C
102
{ACAD_REACTORS
330
C2A
102
}
330
C2A
100
AcDbScale
 70
     0
300
1:2
140
1.0
141
2.0
290
     0
  0
SCALE
  5
C2D
102
{ACAD_REACTORS
330
C2A
102
}
330
C2A
100
AcDbScale
 70
     0
300
1:4
140
1.0
141
4.0
290
     0
  0
SCALE
  5
C2E
102
{ACAD_REACTORS
330
C2A
102
}
330
C2A
100
AcDbScale
 70
     0
300
1:5
140
1.0
141
5.0
290
     0
  0
SCALE
  5
C2F
102
{ACAD_REACTORS
330
C2A
102
}
330
C2A
100
AcDbScale
 70
     0
300
1:8
140
1.0
141
8.0
290
     0
  0
SCALE
  5
C30
102
{ACAD_REACTORS
330
C2A
102
}
330
C2A
100
AcDbScale
 70
     0
300
1:10
140
1.0
141
10.0
290
     0
  0
SCALE
  5
C31
102
{ACAD_REACTORS
330
C2A
102
}
330
C2A
100
AcDbScale
 70
     0
300
1:16
140
1.0
141
16.0
290
     0
  0
SCALE
  5
C32
102
{ACAD_REACTORS
330
C2A
102
}
330
C2A
100
AcDbScale
 70
     0
300
1:20
140
1.0
141
20.0
290
     0
  0
SCALE
  5
C33
102
{ACAD_REACTORS
330
C2A
102
}
330
C2A
100
AcDbScale
 70
     0
300
1:30
140
1.0
141
30.0
290
     0
  0
SCALE
  5
C34
102
{ACAD_REACTORS
330
C2A
102
}
330
C2A
100
AcDbScale
 70
     0
300
1:40
140
1.0
141
40.0
290
     0
  0
SCALE
  5
C35
102
{ACAD_REACTORS
330
C2A
102
}
330
C2A
100
AcDbScale
 70
     0
300
1:50
140
1.0
141
50.0
290
     0
  0
SCALE
  5
C36
102
{ACAD_REACTORS
330
C2A
102
}
330
C2A
100
AcDbScale
 70
     0
300
1:100
140
1.0
141
100.0
290
     0
  0
SCALE
  5
C37
102
{ACAD_REACTORS
330
C2A
102
}
330
C2A
100
AcDbScale
 70
     0
300
2:1
140
2.0
141
1.0
290
     0
  0
SCALE
  5
C38
102
{ACAD_REACTORS
330
C2A
102
}
330
C2A
100
AcDbScale
 70
     0
300
4:1
140
4.0
141
1.0
290
     0
  0
SCALE
  5
C39
102
{ACAD_REACTORS
330
C2A
102
}
330
C2A
100
AcDbScale
 70
     0
300
8:1
140
8.0
141
1.0
290
     0
  0
SCALE
  5
C3A
102
{ACAD_REACTORS
330
C2A
102
}
330
C2A
100
AcDbScale
 70
     0
300
10:1
140
10.0
141
1.0
290
     0
  0
SCALE
  5
C3B
102
{ACAD_REACTORS
330
C2A
102
}
330
C2A
100
AcDbScale
 70
     0
300
100:1
140
100.0
141
1.0
290
     0
  0
SCALE
  5
C3C
102
{ACAD_REACTORS
330
C2A
102
}
330
C2A
100
AcDbScale
 70
     0
300
1/128" = 1'-0"
140
0.0078125
141
12.0
290
     0
  0
SCALE
  5
C3D
102
{ACAD_REACTORS
330
C2A
102
}
330
C2A
100
AcDbScale
 70
     0
300
1/64" = 1'-0"
140
0.015625
141
12.0
290
     0
  0
SCALE
  5
C3E
102
{ACAD_REACTORS
330
C2A
102
}
330
C2A
100
AcDbScale
 70
     0
300
1/32" = 1'-0"
140
0.03125
141
12.0
290
     0
  0
SCALE
  5
C3F
102
{ACAD_REACTORS
330
C2A
102
}
330
C2A
100
AcDbScale
 70
     0
300
1/16" = 1'-0"
140
0.0625
141
12.0
290
     0
  0
SCALE
  5
C40
102
{ACAD_REACTORS
330
C2A
102
}
330
C2A
100
AcDbScale
 70
     0
300
3/32" = 1'-0"
140
0.09375
141
12.0
290
     0
  0
SCALE
  5
C41
102
{ACAD_REACTORS
330
C2A
102
}
330
C2A
100
AcDbScale
 70
     0
300
1/8" = 1'-0"
140
0.125
141
12.0
290
     0
  0
SCALE
  5
C42
102
{ACAD_REACTORS
330
C2A
102
}
330
C2A
100
AcDbScale
 70
     0
300
3/16" = 1'-0"
140
0.1875
141
12.0
290
     0
  0
SCALE
  5
C43
102
{ACAD_REACTORS
330
C2A
102
}
330
C2A
100
AcDbScale
 70
     0
300
1/4" = 1'-0"
140
0.25
141
12.0
290
     0
  0
SCALE
  5
C44
102
{ACAD_REACTORS
330
C2A
102
}
330
C2A
100
AcDbScale
 70
     0
300
3/8" = 1'-0"
140
0.375
141
12.0
290
     0
  0
SCALE
  5
C45
102
{ACAD_REACTORS
330
C2A
102
}
330
C2A
100
AcDbScale
 70
     0
300
1/2" = 1'-0"
140
0.5
141
12.0
290
     0
  0
SCALE
  5
C46
102
{ACAD_REACTORS
330
C2A
102
}
330
C2A
100
AcDbScale
 70
     0
300
3/4" = 1'-0"
140
0.75
141
12.0
290
     0
  0
SCALE
  5
C47
102
{ACAD_REACTORS
330
C2A
102
}
330
C2A
100
AcDbScale
 70
     0
300
1" = 1'-0"
140
1.0
141
12.0
290
     0
  0
SCALE
  5
C48
102
{ACAD_REACTORS
330
C2A
102
}
330
C2A
100
AcDbScale
 70
     0
300
1-1/2" = 1'-0"
140
1.5
141
12.0
290
     0
  0
SCALE
  5
C49
102
{ACAD_REACTORS
330
C2A
102
}
330
C2A
100
AcDbScale
 70
     0
300
3" = 1'-0"
140
3.0
141
12.0
290
     0
  0
SCALE
  5
C4A
102
{ACAD_REACTORS
330
C2A
102
}
330
C2A
100
AcDbScale
 70
     0
300
6" = 1'-0"
140
6.0
141
12.0
290
     0
  0
SCALE
  5
C4B
102
{ACAD_REACTORS
330
C2A
102
}
330
C2A
100
AcDbScale
 70
     0
300
1'-0" = 1'-0"
140
12.0
141
12.0
290
     0
  0
VISUALSTYLE
  5
C12
102
{ACAD_REACTORS
330
C0D
102
}
330
C0D
100
AcDbVisualStyle
  2
2dWireframe
 70
     4
177
     3
291
     0
 70
    58
 90
        0
176
     1
 90
        2
176
     1
 90
        0
176
     1
 90
        0
176
     1
 40
0.6
176
     1
 40
30.0
176
     1
 62
     7
420
 16777215
176
     1
 90
        1
176
     1
 90
        4
176
     1
 62
     7
176
     1
 62
   257
176
     1
 90
        1
176
     1
 90
        1
176
     1
 40
1.0
176
     1
 90
        0
176
     1
 62
   257
176
     1
 40
1.0
176
     1
 90
        1
176
     1
 90
        6
176
     1
 90
        2
176
     1
 62
     7
176
     1
 90
        5
176
     1
 90
        0
176
     1
 90
        0
176
     1
290
     0
176
     1
 90
        1
176
     1
 40
0.0
176
     1
 90
        0
176
     1
290
     1
176
     1
290
     1
176
     1
290
     0
176
     1
290
     0
176
     1
290
     0
176
     1
290
     0
176
     1
290
     0
176
     1
290
     0
176
     1
290
     0
176
     1
 90
       50
176
     1
 40
0.0
176
     1
 40
1.0
176
     1
 90
        0
176
     1
 62
    18
420
        0
176
     1
 90
       50
176
     1
 90
        3
176
     1
 62
     5
420
      255
176
     1
290
     0
176
     1
 90
       50
176
     1
 90
       50
176
     1
 90
       50
176
     1
290
     0
176
     1
 90
       50
176
     1
 62
   256
176
     0
 40
1.0
176
     0
 90
        2
176
     1
  1
strokes_ogs.tif
176
     1
290
     0
176
     1
 40
1.0
176
     1
 40
1.0
176
     1
  0
VISUALSTYLE
  5
C15
102
{ACAD_REACTORS
330
C0D
102
}
330
C0D
100
AcDbVisualStyle
  2
Basic
 70
     7
177
     3
291
     1
 70
    58
 90
        1
176
     1
 90
        0
176
     1
 90
        1
176
     1
 90
        0
176
     1
 40
0.6
176
     1
 40
30.0
176
     1
 62
     7
420
 16777215
176
     1
 90
        0
176
     1
 90
        4
176
     1
 62
     7
176
     1
 62
   257
176
     1
 90
        1
176
     1
 90
        1
176
     1
 40
1.0
176
     1
 90
        8
176
     1
 62
     7
176
     1
 40
1.0
176
     1
 90
        1
176
     1
 90
        6
176
     1
 90
        2
176
     1
 62
     7
176
     1
 90
        5
176
     1
 90
        0
176
     1
 90
        0
176
     1
290
     0
176
     1
 90
        1
176
     1
 40
0.0
176
     1
 90
        0
176
     1
290
     0
176
     1
290
     1
176
     1
290
     1
176
     1
290
     0
176
     1
290
     0
176
     1
290
     0
176
     1
290
     0
176
     1
290
     0
176
     1
290
     0
176
     1
 90
       50
176
     1
 40
0.0
176
     1
 40
1.0
176
     1
 90
        0
176
     1
 62
    18
420
        0
176
     1
 90
       50
176
     1
 90
        3
176
     1
 62
     5
420
      255
176
     1
290
     0
176
     1
 90
       50
176
     1
 90
       50
176
     1
 90
       50
176
     1
290
     0
176
     1
 90
       50
176
     1
 62
   256
176
     0
 40
1.0
176
     0
 90
        2
176
     1
  1
strokes_ogs.tif
176
     1
290
     0
176
     1
 40
1.0
176
     1
 40
1.0
176
     1
  0
VISUALSTYLE
  5
C19
102
{ACAD_REACTORS
330
C0D
102
}
330
C0D
100
AcDbVisualStyle
  2
Brighten
 70
    12
177
     3
291
     1
 70
    58
 90
        2
176
     1
 90
        2
176
     1
 90
        0
176
     1
 90
        0
176
     1
 40
0.6
176
     1
 40
30.0
176
     1
 62
     7
420
 16777215
176
     1
 90
        1
176
     1
 90
        4
176
     1
 62
     7
176
     1
 62
   257
176
     1
 90
        1
176
     1
 90
        1
176
     1
 40
1.0
176
     1
 90
        8
176
     1
 62
     7
176
     1
 40
1.0
176
     1
 90
        1
176
     1
 90
        6
176
     1
 90
        2
176
     1
 62
     7
176
     1
 90
        5
176
     1
 90
        0
176
     1
 90
        0
176
     1
290
     0
176
     1
 90
        1
176
     1
 40
50.0
176
     1
 90
        0
176
     1
290
     0
176
     1
290
     1
176
     1
290
     1
176
     1
290
     0
176
     1
290
     0
176
     1
290
     0
176
     1
290
     0
176
     1
290
     0
176
     1
290
     0
176
     1
 90
       50
176
     1
 40
0.0
176
     1
 40
1.0
176
     1
 90
        0
176
     1
 62
    18
420
        0
176
     1
 90
       50
176
     1
 90
        3
176
     1
 62
     5
420
      255
176
     1
290
     0
176
     1
 90
       50
176
     1
 90
       50
176
     1
 90
       50
176
     1
290
     0
176
     1
 90
       50
176
     1
 62
   256
176
     0
 40
1.0
176
     0
 90
        2
176
     1
  1
strokes_ogs.tif
176
     1
290
     0
176
     1
 40
1.0
176
     1
 40
1.0
176
     1
  0
VISUALSTYLE
  5
C1D
102
{ACAD_REACTORS
330
C0D
102
}
330
C0D
100
AcDbVisualStyle
  2
ColorChange
 70
    16
177
     3
291
     1
 70
    58
 90
        2
176
     1
 90
        2
176
     1
 90
        3
176
     1
 90
        0
176
     1
 40
0.6
176
     1
 40
30.0
176
     1
 62
     8
420
  8421504
176
     1
 90
        1
176
     1
 90
        4
176
     1
 62
     7
176
     1
 62
   257
176
     1
 90
        1
176
     1
 90
        1
176
     1
 40
1.0
176
     1
 90
        8
176
     1
 62
     8
420
  8421504
176
     1
 40
1.0
176
     1
 90
        1
176
     1
 90
        6
176
     1
 90
        2
176
     1
 62
     7
176
     1
 90
        5
176
     1
 90
        0
176
     1
 90
        0
176
     1
290
     0
176
     1
 90
        1
176
     1
 40
0.0
176
     1
 90
        0
176
     1
290
     0
176
     1
290
     1
176
     1
290
     1
176
     1
290
     0
176
     1
290
     0
176
     1
290
     0
176
     1
290
     0
176
     1
290
     0
176
     1
290
     0
176
     1
 90
       50
176
     1
 40
0.0
176
     1
 40
1.0
176
     1
 90
        0
176
     1
 62
    18
420
        0
176
     1
 90
       50
176
     1
 90
        3
176
     1
 62
     5
420
      255
176
     1
290
     0
176
     1
 90
       50
176
     1
 90
       50
176
     1
 90
       50
176
     1
290
     0
176
     1
 90
       50
176
     1
 62
   256
176
     0
 40
1.0
176
     0
 90
        2
176
     1
  1
strokes_ogs.tif
176
     1
290
     0
176
     1
 40
1.0
176
     1
 40
1.0
176
     1
  0
VISUALSTYLE
  5
C17
102
{ACAD_REACTORS
330
C0D
102
}
330
C0D
100
AcDbVisualStyle
  2
Conceptual
 70
     9
177
     3
291
     0
 70
    58
 90
        3
176
     1
 90
        2
176
     1
 90
        0
176
     1
 90
        0
176
     1
 40
0.6
176
     1
 40
30.0
176
     1
 62
     7
420
 16777215
176
     1
 90
        2
176
     1
 90
        2
176
     1
 62
     7
176
     1
 62
   257
176
     1
 90
        1
176
     1
 90
        1
176
     1
 40
179.0
176
     1
 90
        8
176
     1
 62
     7
176
     1
 40
1.0
176
     1
 90
        1
176
     1
 90
        6
176
     1
 90
        2
176
     1
 62
     7
176
     1
 90
        3
176
     1
 90
        0
176
     1
 90
        0
176
     1
290
     0
176
     1
 90
        1
176
     1
 40
0.0
176
     1
 90
        0
176
     1
290
     0
176
     1
290
     1
176
     1
290
     1
176
     1
290
     0
176
     1
290
     0
176
     1
290
     0
176
     1
290
     0
176
     1
290
     0
176
     1
290
     0
176
     1
 90
       50
176
     1
 40
0.0
176
     1
 40
1.0
176
     1
 90
        0
176
     1
 62
    18
420
        0
176
     1
 90
       50
176
     1
 90
        3
176
     1
 62
     5
420
      255
176
     1
290
     0
176
     1
 90
       50
176
     1
 90
       50
176
     1
 90
       50
176
     1
290
     0
176
     1
 90
       50
176
     1
 62
   256
176
     0
 40
1.0
176
     0
 90
        2
176
     1
  1
strokes_ogs.tif
176
     1
290
     0
176
     1
 40
1.0
176
     1
 40
1.0
176
     1
  0
VISUALSTYLE
  5
C18
102
{ACAD_REACTORS
330
C0D
102
}
330
C0D
100
AcDbVisualStyle
  2
Dim
 70
    11
177
     3
291
     1
 70
    58
 90
        2
176
     1
 90
        2
176
     1
 90
        0
176
     1
 90
        0
176
     1
 40
0.6
176
     1
 40
30.0
176
     1
 62
     7
420
 16777215
176
     1
 90
        1
176
     1
 90
        4
176
     1
 62
     7
176
     1
 62
   257
176
     1
 90
        1
176
     1
 90
        1
176
     1
 40
1.0
176
     1
 90
        8
176
     1
 62
     7
176
     1
 40
1.0
176
     1
 90
        1
176
     1
 90
        6
176
     1
 90
        2
176
     1
 62
     7
176
     1
 90
        5
176
     1
 90
        0
176
     1
 90
        0
176
     1
290
     0
176
     1
 90
        1
176
     1
 40
-50.0
176
     1
 90
        0
176
     1
290
     0
176
     1
290
     1
176
     1
290
     1
176
     1
290
     0
176
     1
290
     0
176
     1
290
     0
176
     1
290
     0
176
     1
290
     0
176
     1
290
     0
176
     1
 90
       50
176
     1
 40
0.0
176
     1
 40
1.0
176
     1
 90
        0
176
     1
 62
    18
420
        0
176
     1
 90
       50
176
     1
 90
        3
176
     1
 62
     5
420
      255
176
     1
290
     0
176
     1
 90
       50
176
     1
 90
       50
176
     1
 90
       50
176
     1
290
     0
176
     1
 90
       50
176
     1
 62
   256
176
     0
 40
1.0
176
     0
 90
        2
176
     1
  1
strokes_ogs.tif
176
     1
290
     0
176
     1
 40
1.0
176
     1
 40
1.0
176
     1
  0
VISUALSTYLE
  5
C20
102
{ACAD_REACTORS
330
C0D
102
}
330
C0D
100
AcDbVisualStyle
  2
EdgeColorOff
 70
    22
177
     3
291
     1
 70
    58
 90
        2
176
     0
 90
        2
176
     0
 90
        0
176
     0
 90
        0
176
     0
 40
0.6
176
     0
 40
30.0
176
     0
 62
     7
420
 16777215
176
     0
 90
        1
176
     0
 90
        4
176
     0
 62
     7
176
     0
 62
   257
176
     0
 90
        1
176
     0
 90
        1
176
     0
 40
1.0
176
     0
 90
        8
176
     2
 62
     7
176
     0
 40
1.0
176
     0
 90
        1
176
     0
 90
        6
176
     0
 90
        2
176
     0
 62
     7
176
     0
 90
        5
176
     0
 90
        0
176
     0
 90
        0
176
     0
290
     0
176
     0
 90
        1
176
     0
 40
0.0
176
     0
 90
        0
176
     0
290
     0
176
     0
290
     1
176
     0
290
     1
176
     0
290
     0
176
     0
290
     0
176
     0
290
     0
176
     0
290
     0
176
     0
290
     0
176
     0
290
     0
176
     0
 90
       50
176
     0
 40
0.0
176
     0
 40
1.0
176
     0
 90
        0
176
     0
 62
    18
420
        0
176
     0
 90
       50
176
     0
 90
        3
176
     0
 62
     5
420
      255
176
     0
290
     0
176
     0
 90
       50
176
     0
 90
       50
176
     0
 90
       50
176
     0
290
     0
176
     0
 90
       50
176
     0
 62
   256
176
     0
 40
1.0
176
     0
 90
        2
176
     0
  1
strokes_ogs.tif
176
     0
290
     0
176
     0
 40
1.0
176
     0
 40
1.0
176
     0
  0
VISUALSTYLE
  5
C1C
102
{ACAD_REACTORS
330
C0D
102
}
330
C0D
100
AcDbVisualStyle
  2
Facepattern
 70
    15
177
     3
291
     1
 70
    58
 90
        2
176
     1
 90
        2
176
     1
 90
        0
176
     1
 90
        0
176
     1
 40
0.6
176
     1
 40
30.0
176
     1
 62
     7
420
 16777215
176
     1
 90
        1
176
     1
 90
        4
176
     1
 62
     7
176
     1
 62
   257
176
     1
 90
        1
176
     1
 90
        1
176
     1
 40
1.0
176
     1
 90
        8
176
     1
 62
     7
176
     1
 40
1.0
176
     1
 90
        1
176
     1
 90
        6
176
     1
 90
        2
176
     1
 62
     7
176
     1
 90
        5
176
     1
 90
        0
176
     1
 90
        0
176
     1
290
     0
176
     1
 90
        1
176
     1
 40
0.0
176
     1
 90
        0
176
     1
290
     0
176
     1
290
     1
176
     1
290
     1
176
     1
290
     0
176
     1
290
     0
176
     1
290
     0
176
     1
290
     0
176
     1
290
     0
176
     1
290
     0
176
     1
 90
       50
176
     1
 40
0.0
176
     1
 40
1.0
176
     1
 90
        0
176
     1
 62
    18
420
        0
176
     1
 90
       50
176
     1
 90
        3
176
     1
 62
     5
420
      255
176
     1
290
     0
176
     1
 90
       50
176
     1
 90
       50
176
     1
 90
       50
176
     1
290
     0
176
     1
 90
       50
176
     1
 62
   256
176
     0
 40
1.0
176
     0
 90
        2
176
     1
  1
strokes_ogs.tif
176
     1
290
     0
176
     1
 40
1.0
176
     1
 40
1.0
176
     1
  0
VISUALSTYLE
  5
C0E
102
{ACAD_REACTORS
330
C0D
102
}
330
C0D
100
AcDbVisualStyle
  2
Flat
 70
     0
177
     3
291
     1
 70
    58
 90
        2
176
     1
 90
        1
176
     1
 90
        1
176
     1
 90
        2
176
     1
 40
0.6
176
     1
 40
30.0
176
     1
 62
     7
420
 16777215
176
     1
 90
        0
176
     1
 90
        0
176
     1
 62
     7
176
     1
 62
   257
176
     1
 90
        1
176
     1
 90
        1
176
     1
 40
1.0
176
     1
 90
        8
176
     1
 62
     7
176
     1
 40
1.0
176
     1
 90
        1
176
     1
 90
        6
176
     1
 90
        2
176
     1
 62
     7
176
     1
 90
        5
176
     1
 90
        0
176
     1
 90
        0
176
     1
290
     0
176
     1
 90
       13
176
     1
 40
0.0
176
     1
 90
        0
176
     1
290
     0
176
     1
290
     1
176
     1
290
     1
176
     1
290
     0
176
     1
290
     0
176
     1
290
     0
176
     1
290
     0
176
     1
290
     0
176
     1
290
     0
176
     1
 90
       50
176
     1
 40
0.0
176
     1
 40
1.0
176
     1
 90
        0
176
     1
 62
    18
420
        0
176
     1
 90
       50
176
     1
 90
        3
176
     1
 62
     5
420
      255
176
     1
290
     0
176
     1
 90
       50
176
     1
 90
       50
176
     1
 90
       50
176
     1
290
     0
176
     1
 90
       50
176
     1
 62
   256
176
     0
 40
1.0
176
     0
 90
        2
176
     1
  1
strokes_ogs.tif
176
     1
290
     0
176
     1
 40
1.0
176
     1
 40
1.0
176
     1
  0
VISUALSTYLE
  5
C0F
102
{ACAD_REACTORS
330
C0D
102
}
330
C0D
100
AcDbVisualStyle
  2
FlatWithEdges
 70
     1
177
     3
291
     1
 70
    58
 90
        2
176
     1
 90
        1
176
     1
 90
        1
176
     1
 90
        2
176
     1
 40
0.6
176
     1
 40
30.0
176
     1
 62
     7
420
 16777215
176
     1
 90
        1
176
     1
 90
        0
176
     1
 62
     7
176
     1
 62
   257
176
     1
 90
        1
176
     1
 90
        1
176
     1
 40
1.0
176
     1
 90
        0
176
     1
 62
   257
176
     1
 40
1.0
176
     1
 90
        1
176
     1
 90
        6
176
     1
 90
        2
176
     1
 62
     7
176
     1
 90
        5
176
     1
 90
        0
176
     1
 90
        0
176
     1
290
     0
176
     1
 90
       13
176
     1
 40
0.0
176
     1
 90
        0
176
     1
290
     0
176
     1
290
     1
176
     1
290
     1
176
     1
290
     0
176
     1
290
     0
176
     1
290
     0
176
     1
290
     0
176
     1
290
     0
176
     1
290
     0
176
     1
 90
       50
176
     1
 40
0.0
176
     1
 40
1.0
176
     1
 90
        0
176
     1
 62
    18
420
        0
176
     1
 90
       50
176
     1
 90
        3
176
     1
 62
     5
420
      255
176
     1
290
     0
176
     1
 90
       50
176
     1
 90
       50
176
     1
 90
       50
176
     1
290
     0
176
     1
 90
       50
176
     1
 62
   256
176
     0
 40
1.0
176
     0
 90
        2
176
     1
  1
strokes_ogs.tif
176
     1
290
     0
176
     1
 40
1.0
176
     1
 40
1.0
176
     1
  0
VISUALSTYLE
  5
C10
102
{ACAD_REACTORS
330
C0D
102
}
330
C0D
100
AcDbVisualStyle
  2
Gouraud
 70
     2
177
     3
291
     1
 70
    58
 90
        2
176
     1
 90
        2
176
     1
 90
        1
176
     1
 90
        2
176
     1
 40
0.6
176
     1
 40
30.0
176
     1
 62
     7
420
 16777215
176
     1
 90
        0
176
     1
 90
        0
176
     1
 62
     7
176
     1
 62
   257
176
     1
 90
        1
176
     1
 90
        1
176
     1
 40
1.0
176
     1
 90
        0
176
     1
 62
     7
176
     1
 40
1.0
176
     1
 90
        1
176
     1
 90
        6
176
     1
 90
        2
176
     1
 62
     7
176
     1
 90
        5
176
     1
 90
        0
176
     1
 90
        0
176
     1
290
     0
176
     1
 90
       13
176
     1
 40
0.0
176
     1
 90
        0
176
     1
290
     0
176
     1
290
     1
176
     1
290
     1
176
     1
290
     0
176
     1
290
     0
176
     1
290
     0
176
     1
290
     0
176
     1
290
     0
176
     1
290
     0
176
     1
 90
       50
176
     1
 40
0.0
176
     1
 40
1.0
176
     1
 90
        0
176
     1
 62
    18
420
        0
176
     1
 90
       50
176
     1
 90
        3
176
     1
 62
     5
420
      255
176
     1
290
     0
176
     1
 90
       50
176
     1
 90
       50
176
     1
 90
       50
176
     1
290
     0
176
     1
 90
       50
176
     1
 62
   256
176
     0
 40
1.0
176
     0
 90
        2
176
     1
  1
strokes_ogs.tif
176
     1
290
     0
176
     1
 40
1.0
176
     1
 40
1.0
176
     1
  0
VISUALSTYLE
  5
C11
102
{ACAD_REACTORS
330
C0D
102
}
330
C0D
100
AcDbVisualStyle
  2
GouraudWithEdges
 70
     3
177
     3
291
     1
 70
    58
 90
        2
176
     1
 90
        2
176
     1
 90
        1
176
     1
 90
        2
176
     1
 40
0.6
176
     1
 40
30.0
176
     1
 62
     7
420
 16777215
176
     1
 90
        1
176
     1
 90
        0
176
     1
 62
     7
176
     1
 62
   257
176
     1
 90
        1
176
     1
 90
        1
176
     1
 40
1.0
176
     1
 90
        0
176
     1
 62
   257
176
     1
 40
1.0
176
     1
 90
        1
176
     1
 90
        6
176
     1
 90
        2
176
     1
 62
     7
176
     1
 90
        5
176
     1
 90
        0
176
     1
 90
        0
176
     1
290
     0
176
     1
 90
       13
176
     1
 40
0.0
176
     1
 90
        0
176
     1
290
     0
176
     1
290
     1
176
     1
290
     1
176
     1
290
     0
176
     1
290
     0
176
     1
290
     0
176
     1
290
     0
176
     1
290
     0
176
     1
290
     0
176
     1
 90
       50
176
     1
 40
0.0
176
     1
 40
1.0
176
     1
 90
        0
176
     1
 62
    18
420
        0
176
     1
 90
       50
176
     1
 90
        3
176
     1
 62
     5
420
      255
176
     1
290
     0
176
     1
 90
       50
176
     1
 90
       50
176
     1
 90
       50
176
     1
290
     0
176
     1
 90
       50
176
     1
 62
   256
176
     0
 40
1.0
176
     0
 90
        2
176
     1
  1
strokes_ogs.tif
176
     1
290
     0
176
     1
 40
1.0
176
     1
 40
1.0
176
     1
  0
VISUALSTYLE
  5
C14
102
{ACAD_REACTORS
330
C0D
102
}
330
C0D
100
AcDbVisualStyle
  2
Hidden
 70
     6
177
     3
291
     0
 70
    58
 90
        1
176
     1
 90
        2
176
     1
 90
        2
176
     1
 90
        0
176
     1
 40
0.6
176
     1
 40
30.0
176
     1
 62
     7
420
 16777215
176
     1
 90
        2
176
     1
 90
        2
176
     1
 62
     7
176
     1
 62
   257
176
     1
 90
        2
176
     1
 90
        1
176
     1
 40
40.0
176
     1
 90
        0
176
     1
 62
   257
176
     1
 40
1.0
176
     1
 90
        1
176
     1
 90
        6
176
     1
 90
        2
176
     1
 62
     7
176
     1
 90
        3
176
     1
 90
        0
176
     1
 90
        0
176
     1
290
     0
176
     1
 90
        1
176
     1
 40
0.0
176
     1
 90
        0
176
     1
290
     0
176
     1
290
     1
176
     1
290
     1
176
     1
290
     0
176
     1
290
     0
176
     1
290
     0
176
     1
290
     0
176
     1
290
     0
176
     1
290
     0
176
     1
 90
       50
176
     1
 40
0.0
176
     1
 40
1.0
176
     1
 90
        0
176
     1
 62
    18
420
        0
176
     1
 90
       50
176
     1
 90
        3
176
     1
 62
     5
420
      255
176
     1
290
     0
176
     1
 90
       50
176
     1
 90
       50
176
     1
 90
       50
176
     1
290
     0
176
     1
 90
       50
176
     1
 62
   256
176
     0
 40
1.0
176
     0
 90
        2
176
     1
  1
strokes_ogs.tif
176
     1
290
     0
176
     1
 40
1.0
176
     1
 40
1.0
176
     1
  0
VISUALSTYLE
  5
C1E
102
{ACAD_REACTORS
330
C0D
102
}
330
C0D
100
AcDbVisualStyle
  2
JitterOff
 70
    20
177
     3
291
     1
 70
    58
 90
        2
176
     0
 90
        2
176
     0
 90
        0
176
     0
 90
        0
176
     0
 40
0.6
176
     0
 40
30.0
176
     0
 62
     7
420
 16777215
176
     0
 90
        1
176
     0
 90
        4
176
     0
 62
     7
176
     0
 62
   257
176
     0
 90
        1
176
     0
 90
        1
176
     0
 40
1.0
176
     0
 90
       10
176
     2
 62
     7
176
     0
 40
1.0
176
     0
 90
        1
176
     0
 90
        6
176
     0
 90
        2
176
     0
 62
     7
176
     0
 90
        5
176
     0
 90
        0
176
     0
 90
        0
176
     0
290
     0
176
     0
 90
        1
176
     0
 40
0.0
176
     0
 90
        0
176
     0
290
     0
176
     0
290
     1
176
     0
290
     1
176
     0
290
     0
176
     0
290
     0
176
     0
290
     0
176
     0
290
     0
176
     0
290
     0
176
     0
290
     0
176
     0
 90
       50
176
     0
 40
0.0
176
     0
 40
1.0
176
     0
 90
        0
176
     0
 62
    18
420
        0
176
     0
 90
       50
176
     0
 90
        3
176
     0
 62
     5
420
      255
176
     0
290
     0
176
     0
 90
       50
176
     0
 90
       50
176
     0
 90
       50
176
     0
290
     0
176
     0
 90
       50
176
     0
 62
   256
176
     0
 40
1.0
176
     0
 90
        2
176
     0
  1
strokes_ogs.tif
176
     0
290
     0
176
     0
 40
1.0
176
     0
 40
1.0
176
     0
  0
VISUALSTYLE
  5
C1B
102
{ACAD_REACTORS
330
C0D
102
}
330
C0D
100
AcDbVisualStyle
  2
Linepattern
 70
    14
177
     3
291
     1
 70
    58
 90
        2
176
     1
 90
        2
176
     1
 90
        0
176
     1
 90
        0
176
     1
 40
0.6
176
     1
 40
30.0
176
     1
 62
     7
420
 16777215
176
     1
 90
        1
176
     1
 90
        4
176
     1
 62
     7
176
     1
 62
   257
176
     1
 90
        7
176
     1
 90
        7
176
     1
 40
1.0
176
     1
 90
        8
176
     1
 62
     7
176
     1
 40
1.0
176
     1
 90
        1
176
     1
 90
        6
176
     1
 90
        2
176
     1
 62
     7
176
     1
 90
        5
176
     1
 90
        0
176
     1
 90
        0
176
     1
290
     0
176
     1
 90
        1
176
     1
 40
0.0
176
     1
 90
        0
176
     1
290
     0
176
     1
290
     1
176
     1
290
     1
176
     1
290
     0
176
     1
290
     0
176
     1
290
     0
176
     1
290
     0
176
     1
290
     0
176
     1
290
     0
176
     1
 90
       50
176
     1
 40
0.0
176
     1
 40
1.0
176
     1
 90
        0
176
     1
 62
    18
420
        0
176
     1
 90
       50
176
     1
 90
        3
176
     1
 62
     5
420
      255
176
     1
290
     0
176
     1
 90
       50
176
     1
 90
       50
176
     1
 90
       50
176
     1
290
     0
176
     1
 90
       50
176
     1
 62
   256
176
     0
 40
1.0
176
     0
 90
        2
176
     1
  1
strokes_ogs.tif
176
     1
290
     0
176
     1
 40
1.0
176
     1
 40
1.0
176
     1
  0
VISUALSTYLE
  5
C1F
102
{ACAD_REACTORS
330
C0D
102
}
330
C0D
100
AcDbVisualStyle
  2
OverhangOff
 70
    21
177
     3
291
     1
 70
    58
 90
        2
176
     0
 90
        2
176
     0
 90
        0
176
     0
 90
        0
176
     0
 40
0.6
176
     0
 40
30.0
176
     0
 62
     7
420
 16777215
176
     0
 90
        1
176
     0
 90
        4
176
     0
 62
     7
176
     0
 62
   257
176
     0
 90
        1
176
     0
 90
        1
176
     0
 40
1.0
176
     0
 90
        9
176
     2
 62
     7
176
     0
 40
1.0
176
     0
 90
        1
176
     0
 90
        6
176
     0
 90
        2
176
     0
 62
     7
176
     0
 90
        5
176
     0
 90
        0
176
     0
 90
        0
176
     0
290
     0
176
     0
 90
        1
176
     0
 40
0.0
176
     0
 90
        0
176
     0
290
     0
176
     0
290
     1
176
     0
290
     1
176
     0
290
     0
176
     0
290
     0
176
     0
290
     0
176
     0
290
     0
176
     0
290
     0
176
     0
290
     0
176
     0
 90
       50
176
     0
 40
0.0
176
     0
 40
1.0
176
     0
 90
        0
176
     0
 62
    18
420
        0
176
     0
 90
       50
176
     0
 90
        3
176
     0
 62
     5
420
      255
176
     0
290
     0
176
     0
 90
       50
176
     0
 90
       50
176
     0
 90
       50
176
     0
290
     0
176
     0
 90
       50
176
     0
 62
   256
176
     0
 40
1.0
176
     0
 90
        2
176
     0
  1
strokes_ogs.tif
176
     0
290
     0
176
     0
 40
1.0
176
     0
 40
1.0
176
     0
  0
VISUALSTYLE
  5
C16
102
{ACAD_REACTORS
330
C0D
102
}
330
C0D
100
AcDbVisualStyle
  2
Realistic
 70
     8
177
     3
291
     0
 70
    58
 90
        2
176
     1
 90
        3
176
     1
 90
        0
176
     1
 90
        2
176
     1
 40
0.6
176
     1
 40
30.0
176
     1
 62
     7
420
 16777215
176
     1
 90
        0
176
     1
 90
        0
176
     1
 62
     7
176
     1
 62
   257
176
     1
 90
        1
176
     1
 90
        1
176
     1
 40
1.0
176
     1
 90
        8
176
     1
 62
   257
176
     1
 40
1.0
176
     1
 90
        1
176
     1
 90
        6
176
     1
 90
        2
176
     1
 62
     7
176
     1
 90
        3
176
     1
 90
        0
176
     1
 90
        0
176
     1
290
     0
176
     1
 90
       13
176
     1
 40
0.0
176
     1
 90
        0
176
     1
290
     0
176
     1
290
     1
176
     1
290
     1
176
     1
290
     0
176
     1
290
     0
176
     1
290
     0
176
     1
290
     0
176
     1
290
     0
176
     1
290
     0
176
     1
 90
       50
176
     1
 40
0.0
176
     1
 40
1.0
176
     1
 90
        0
176
     1
 62
    18
420
        0
176
     1
 90
       50
176
     1
 90
        3
176
     1
 62
     5
420
      255
176
     1
290
     0
176
     1
 90
       50
176
     1
 90
       50
176
     1
 90
       50
176
     1
290
     0
176
     1
 90
       50
176
     1
 62
   256
176
     0
 40
1.0
176
     0
 90
        2
176
     1
  1
strokes_ogs.tif
176
     1
290
     0
176
     1
 40
1.0
176
     1
 40
1.0
176
     1
  0
VISUALSTYLE
  5
C25
102
{ACAD_REACTORS
330
C0D
102
}
330
C0D
100
AcDbVisualStyle
  2
Shaded
 70
    27
177
     3
291
     0
 70
    58
 90
        2
176
     1
 90
        2
176
     1
 90
        1
176
     1
 90
        2
176
     1
 40
0.6
176
     1
 40
30.0
176
     1
 62
     7
420
 16777215
176
     1
 90
        0
176
     1
 90
        4
176
     1
 62
     7
176
     1
 62
   257
176
     1
 90
        1
176
     1
 90
        1
176
     1
 40
1.0
176
     1
 90
        8
176
     1
 62
   257
176
     1
 40
1.0
176
     1
 90
        1
176
     1
 90
        6
176
     1
 90
        2
176
     1
 62
     8
420
  7895160
176
     1
 90
        3
176
     1
 90
        0
176
     1
 90
        0
176
     1
290
     0
176
     1
 90
        5
176
     1
 40
0.0
176
     1
 90
        0
176
     1
290
     0
176
     1
290
     1
176
     1
290
     1
176
     1
290
     0
176
     1
290
     0
176
     1
290
     0
176
     1
290
     0
176
     1
290
     0
176
     1
290
     0
176
     1
 90
       50
176
     1
 40
0.0
176
     1
 40
1.0
176
     1
 90
        0
176
     1
 62
    18
420
        0
176
     1
 90
       50
176
     1
 90
        3
176
     1
 62
     5
420
      255
176
     1
290
     0
176
     1
 90
       50
176
     1
 90
       50
176
     1
 90
       50
176
     1
290
     0
176
     1
 90
       50
176
     1
 62
   256
176
     0
 40
1.0
176
     0
 90
        2
176
     1
  1
strokes_ogs.tif
176
     1
290
     0
176
     1
 40
1.0
176
     1
 40
1.0
176
     1
  0
VISUALSTYLE
  5
C24
102
{ACAD_REACTORS
330
C0D
102
}
330
C0D
100
AcDbVisualStyle
  2
Shaded with edges
 70
    26
177
     3
291
     0
 70
    58
 90
        2
176
     1
 90
        2
176
     1
 90
        1
176
     1
 90
        2
176
     1
 40
0.6
176
     1
 40
30.0
176
     1
 62
     7
420
 16777215
176
     1
 90
        1
176
     1
 90
       10
176
     1
 62
     7
176
     1
 62
   257
176
     1
 90
        2
176
     1
 90
        1
176
     1
 40
1.0
176
     1
 90
        8
176
     1
 62
   257
176
     1
 40
1.0
176
     1
 90
        1
176
     1
 90
        6
176
     1
 90
        2
176
     1
 62
     7
176
     1
 90
        3
176
     1
 90
        0
176
     1
 90
        0
176
     1
290
     0
176
     1
 90
        5
176
     1
 40
0.0
176
     1
 90
        0
176
     1
290
     0
176
     1
290
     1
176
     1
290
     1
176
     1
290
     0
176
     1
290
     0
176
     1
290
     0
176
     1
290
     0
176
     1
290
     0
176
     1
290
     0
176
     1
 90
       50
176
     1
 40
0.0
176
     1
 40
1.0
176
     1
 90
        0
176
     1
 62
    18
420
        0
176
     1
 90
       50
176
     1
 90
        3
176
     1
 62
     5
420
      255
176
     1
290
     0
176
     1
 90
       50
176
     1
 90
       50
176
     1
 90
       50
176
     1
290
     0
176
     1
 90
       50
176
     1
 62
   256
176
     0
 40
1.0
176
     0
 90
        2
176
     1
  1
strokes_ogs.tif
176
     1
290
     0
176
     1
 40
1.0
176
     1
 40
1.0
176
     1
  0
VISUALSTYLE
  5
C21
102
{ACAD_REACTORS
330
C0D
102
}
330
C0D
100
AcDbVisualStyle
  2
Shades of Gray
 70
    23
177
     3
291
     0
 70
    58
 90
        2
176
     1
 90
        2
176
     1
 90
        3
176
     1
 90
        0
176
     1
 40
0.6
176
     1
 40
30.0
176
     1
 62
     7
420
 16777215
176
     1
 90
        2
176
     1
 90
        2
176
     1
 62
     7
176
     1
 62
     7
176
     1
 90
        1
176
     1
 90
        1
176
     1
 40
40.0
176
     1
 90
        8
176
     1
 62
     7
176
     1
 40
1.0
176
     1
 90
        1
176
     1
 90
        6
176
     1
 90
        2
176
     1
 62
     7
176
     1
 90
        3
176
     1
 90
        0
176
     1
 90
        0
176
     1
290
     0
176
     1
 90
        1
176
     1
 40
0.0
176
     1
 90
        0
176
     1
290
     0
176
     1
290
     1
176
     1
290
     1
176
     1
290
     0
176
     1
290
     0
176
     1
290
     0
176
     1
290
     0
176
     1
290
     0
176
     1
290
     0
176
     1
 90
       50
176
     1
 40
0.0
176
     1
 40
1.0
176
     1
 90
        0
176
     1
 62
    18
420
        0
176
     1
 90
       50
176
     1
 90
        3
176
     1
 62
     5
420
      255
176
     1
290
     0
176
     1
 90
       50
176
     1
 90
       50
176
     1
 90
       50
176
     1
290
     0
176
     1
 90
       50
176
     1
 62
   256
176
     0
 40
1.0
176
     0
 90
        2
176
     1
  1
strokes_ogs.tif
176
     1
290
     0
176
     1
 40
1.0
176
     1
 40
1.0
176
     1
  0
VISUALSTYLE
  5
C22
102
{ACAD_REACTORS
330
C0D
102
}
330
C0D
100
AcDbVisualStyle
  2
Sketchy
 70
    24
177
     3
291
     0
 70
    58
 90
        1
176
     1
 90
        2
176
     1
 90
        2
176
     1
 90
        0
176
     1
 40
0.6
176
     1
 40
30.0
176
     1
 62
     7
420
 16777215
176
     1
 90
        2
176
     1
 90
        2
176
     1
 62
     7
176
     1
 62
     7
176
     1
 90
        1
176
     1
 90
        1
176
     1
 40
40.0
176
     1
 90
       11
176
     1
 62
     7
176
     1
 40
1.0
176
     1
 90
        1
176
     1
 90
        6
176
     1
 90
        2
176
     1
 62
     7
176
     1
 90
        6
176
     1
 90
        0
176
     1
 90
        0
176
     1
290
     0
176
     1
 90
        1
176
     1
 40
0.0
176
     1
 90
        0
176
     1
290
     0
176
     1
290
     1
176
     1
290
     1
176
     1
290
     0
176
     1
290
     0
176
     1
290
     0
176
     1
290
     0
176
     1
290
     0
176
     1
290
     0
176
     1
 90
       50
176
     1
 40
0.0
176
     1
 40
1.0
176
     1
 90
        0
176
     1
 62
    18
420
        0
176
     1
 90
       50
176
     1
 90
        3
176
     1
 62
     5
420
      255
176
     1
290
     0
176
     1
 90
       50
176
     1
 90
       50
176
     1
 90
       50
176
     1
290
     0
176
     1
 90
       50
176
     1
 62
   256
176
     0
 40
1.0
176
     0
 90
        2
176
     1
  1
strokes_ogs.tif
176
     1
290
     0
176
     1
 40
1.0
176
     1
 40
1.0
176
     1
  0
VISUALSTYLE
  5
C1A
102
{ACAD_REACTORS
330
C0D
102
}
330
C0D
100
AcDbVisualStyle
  2
Thicken
 70
    13
177
     3
291
     1
 70
    58
 90
        2
176
     1
 90
        2
176
     1
 90
        0
176
     1
 90
        0
176
     1
 40
0.6
176
     1
 40
30.0
176
     1
 62
     7
420
 16777215
176
     1
 90
        1
176
     1
 90
        4
176
     1
 62
     7
176
     1
 62
   257
176
     1
 90
        1
176
     1
 90
        1
176
     1
 40
1.0
176
     1
 90
       12
176
     1
 62
     7
176
     1
 40
1.0
176
     1
 90
        1
176
     1
 90
        6
176
     1
 90
        2
176
     1
 62
     7
176
     1
 90
        5
176
     1
 90
        0
176
     1
 90
        0
176
     1
290
     0
176
     1
 90
        1
176
     1
 40
0.0
176
     1
 90
        0
176
     1
290
     0
176
     1
290
     1
176
     1
290
     1
176
     1
290
     0
176
     1
290
     0
176
     1
290
     0
176
     1
290
     0
176
     1
290
     0
176
     1
290
     0
176
     1
 90
       50
176
     1
 40
0.0
176
     1
 40
1.0
176
     1
 90
        0
176
     1
 62
    18
420
        0
176
     1
 90
       50
176
     1
 90
        3
176
     1
 62
     5
420
      255
176
     1
290
     0
176
     1
 90
       50
176
     1
 90
       50
176
     1
 90
       50
176
     1
290
     0
176
     1
 90
       50
176
     1
 62
   256
176
     0
 40
1.0
176
     0
 90
        2
176
     1
  1
strokes_ogs.tif
176
     1
290
     0
176
     1
 40
1.0
176
     1
 40
1.0
176
     1
  0
VISUALSTYLE
  5
C13
102
{ACAD_REACTORS
330
C0D
102
}
330
C0D
100
AcDbVisualStyle
  2
Wireframe
 70
     5
177
     3
291
     0
 70
    58
 90
        0
176
     1
 90
        2
176
     1
 90
        0
176
     1
 90
        0
176
     1
 40
0.6
176
     1
 40
30.0
176
     1
 62
     7
420
 16777215
176
     1
 90
        1
176
     1
 90
        4
176
     1
 62
     7
176
     1
 62
   257
176
     1
 90
        1
176
     1
 90
        1
176
     1
 40
1.0
176
     1
 90
        0
176
     1
 62
   257
176
     1
 40
1.0
176
     1
 90
        1
176
     1
 90
        6
176
     1
 90
        2
176
     1
 62
     7
176
     1
 90
        3
176
     1
 90
        0
176
     1
 90
        0
176
     1
290
     0
176
     1
 90
        1
176
     1
 40
0.0
176
     1
 90
        0
176
     1
290
     0
176
     1
290
     1
176
     1
290
     1
176
     1
290
     0
176
     1
290
     0
176
     1
290
     0
176
     1
290
     0
176
     1
290
     0
176
     1
290
     0
176
     1
 90
       50
176
     1
 40
0.0
176
     1
 40
1.0
176
     1
 90
        0
176
     1
 62
    18
420
        0
176
     1
 90
       50
176
     1
 90
        3
176
     1
 62
     5
420
      255
176
     1
290
     0
176
     1
 90
       50
176
     1
 90
       50
176
     1
 90
       50
176
     1
290
     0
176
     1
 90
       50
176
     1
 62
   256
176
     0
 40
1.0
176
     0
 90
        2
176
     1
  1
strokes_ogs.tif
176
     1
290
     0
176
     1
 40
1.0
176
     1
 40
1.0
176
     1
  0
VISUALSTYLE
  5
C23
102
{ACAD_REACTORS
330
C0D
102
}
330
C0D
100
AcDbVisualStyle
  2
X-Ray
 70
    25
177
     3
291
     0
 70
    58
 90
        2
176
     1
 90
        2
176
     1
 90
        1
176
     1
 90
        1
176
     1
 40
0.5
176
     1
 40
30.0
176
     1
 62
     7
420
 16777215
176
     1
 90
        1
176
     1
 90
        0
176
     1
 62
     7
176
     1
 62
   257
176
     1
 90
        1
176
     1
 90
        1
176
     1
 40
1.0
176
     1
 90
        8
176
     1
 62
     7
176
     1
 40
1.0
176
     1
 90
        1
176
     1
 90
        6
176
     1
 90
        2
176
     1
 62
     7
176
     1
 90
        3
176
     1
 90
        0
176
     1
 90
        0
176
     1
290
     0
176
     1
 90
       13
176
     1
 40
0.0
176
     1
 90
        0
176
     1
290
     0
176
     1
290
     1
176
     1
290
     1
176
     1
290
     0
176
     1
290
     0
176
     1
290
     0
176
     1
290
     0
176
     1
290
     0
176
     1
290
     0
176
     1
 90
       50
176
     1
 40
0.0
176
     1
 40
1.0
176
     1
 90
        0
176
     1
 62
    18
420
        0
176
     1
 90
       50
176
     1
 90
        3
176
     1
 62
     5
420
      255
176
     1
290
     0
176
     1
 90
       50
176
     1
 90
       50
176
     1
 90
       50
176
     1
290
     0
176
     1
 90
       50
176
     1
 62
   256
176
     0
 40
1.0
176
     0
 90
        2
176
     1
  1
strokes_ogs.tif
176
     1
290
     0
176
     1
 40
1.0
176
     1
 40
1.0
176
     1
  0
DICTIONARYVAR
  5
C8E
102
{ACAD_REACTORS
330
C8D
102
}
330
C8D
100
DictionaryVariables
280
     0
  1
1:1
  0
XRECORD
  5
C4F
102
{ACAD_REACTORS
330
C4E
102
}
330
C4E
100
AcDbXrecord
280
     1
290
     1
  0
XRECORD
  5
C50
102
{ACAD_REACTORS
330
C4E
102
}
330
C4E
100
AcDbXrecord
280
     1
290
     1
  0
XRECORD
  5
C51
102
{ACAD_REACTORS
330
C4E
102
}
330
C4E
100
AcDbXrecord
280
     1
290
     1
  0
XRECORD
  5
C52
102
{ACAD_REACTORS
330
C4E
102
}
330
C4E
100
AcDbXrecord
280
     1
290
     1
  0
XRECORD
  5
C53
102
{ACAD_REACTORS
330
C4E
102
}
330
C4E
100
AcDbXrecord
280
     1
1000
auto
  0
XRECORD
  5
C54
102
{ACAD_REACTORS
330
C4E
102
}
330
C4E
100
AcDbXrecord
280
     1
1000
auto
  0
XRECORD
  5
C55
102
{ACAD_REACTORS
330
C4E
102
}
330
C4E
100
AcDbXrecord
280
     1
1000
auto
  0
XRECORD
  5
C56
102
{ACAD_REACTORS
330
C4E
102
}
330
C4E
100
AcDbXrecord
280
     1
1000
auto
  0
XRECORD
  5
C57
102
{ACAD_REACTORS
330
C4E
102
}
330
C4E
100
AcDbXrecord
280
     1
1000
auto
  0
XRECORD
  5
C58
102
{ACAD_REACTORS
330
C4E
102
}
330
C4E
100
AcDbXrecord
280
     1
1000
auto
  0
XRECORD
  5
C59
102
{ACAD_REACTORS
330
C4E
102
}
330
C4E
100
AcDbXrecord
280
     1
1000
auto
  0
XRECORD
  5
C5A
102
{ACAD_REACTORS
330
C4E
102
}
330
C4E
100
AcDbXrecord
280
     1
1000
auto
  0
XRECORD
  5
C5B
102
{ACAD_REACTORS
330
C4E
102
}
330
C4E
100
AcDbXrecord
280
     1
290
     0
  0
XRECORD
  5
C5C
102
{ACAD_REACTORS
330
C4E
102
}
330
C4E
100
AcDbXrecord
280
     1
290
     0
  0
XRECORD
  5
C5D
102
{ACAD_REACTORS
330
C4E
102
}
330
C4E
100
AcDbXrecord
280
     1
290
     0
  0
XRECORD
  5
C5E
102
{ACAD_REACTORS
330
C4E
102
}
330
C4E
100
AcDbXrecord
280
     1
290
     0
  0
XRECORD
  5
C5F
102
{ACAD_REACTORS
330
C4E
102
}
330
C4E
100
AcDbXrecord
280
     1
 90
        0
  0
XRECORD
  5
C60
102
{ACAD_REACTORS
330
C4E
102
}
330
C4E
100
AcDbXrecord
280
     1
 90
        0
  0
XRECORD
  5
C61
102
{ACAD_REACTORS
330
C4E
102
}
330
C4E
100
AcDbXrecord
280
     1
 90
        0
  0
XRECORD
  5
C62
102
{ACAD_REACTORS
330
C4E
102
}
330
C4E
100
AcDbXrecord
280
     1
 90
        0
  0
XRECORD
  5
C63
102
{ACAD_REACTORS
330
C4E
102
}
330
C4E
100
AcDbXrecord
280
     1
1000
auto
  0
XRECORD
  5
C64
102
{ACAD_REACTORS
330
C4E
102
}
330
C4E
100
AcDbXrecord
280
     1
1000
auto
  0
XRECORD
  5
C65
102
{ACAD_REACTORS
330
C4E
102
}
330
C4E
100
AcDbXrecord
280
     1
1000
auto
  0
XRECORD
  5
C66
102
{ACAD_REACTORS
330
C4E
102
}
330
C4E
100
AcDbXrecord
280
     1
1000
auto
  0
XRECORD
  5
C67
102
{ACAD_REACTORS
330
C4E
102
}
330
C4E
100
AcDbXrecord
280
     1
1000
auto
  0
XRECORD
  5
C68
102
{ACAD_REACTORS
330
C4E
102
}
330
C4E
100
AcDbXrecord
280
     1
1000
auto
  0
XRECORD
  5
C69
102
{ACAD_REACTORS
330
C4E
102
}
330
C4E
100
AcDbXrecord
280
     1
1000
auto
  0
XRECORD
  5
C6A
102
{ACAD_REACTORS
330
C4E
102
}
330
C4E
100
AcDbXrecord
280
     1
1000
auto
  0
XRECORD
  5
C6B
102
{ACAD_REACTORS
330
C4E
102
}
330
C4E
100
AcDbXrecord
280
     1
 90
        1
  0
XRECORD
  5
C6C
102
{ACAD_REACTORS
330
C4E
102
}
330
C4E
100
AcDbXrecord
280
     1
 40
10.0
  0
XRECORD
  5
C6D
102
{ACAD_REACTORS
330
C4E
102
}
330
C4E
100
AcDbXrecord
280
     1
 40
10.0
  0
XRECORD
  5
C6E
102
{ACAD_REACTORS
330
C4E
102
}
330
C4E
100
AcDbXrecord
280
     1
 40
10.0
  0
XRECORD
  5
C6F
102
{ACAD_REACTORS
330
C4E
102
}
330
C4E
100
AcDbXrecord
280
     1
 40
10.0
  0
XRECORD
  5
C70
102
{ACAD_REACTORS
330
C4E
102
}
330
C4E
100
AcDbXrecord
280
     1
290
     0
  0
XRECORD
  5
C71
102
{ACAD_REACTORS
330
C4E
102
}
330
C4E
100
AcDbXrecord
280
     1
 90
        1
  0
XRECORD
  5
C72
102
{ACAD_REACTORS
330
C4E
102
}
330
C4E
100
AcDbXrecord
280
     1
 40
0.0
  0
XRECORD
  5
C73
102
{ACAD_REACTORS
330
C4E
102
}
330
C4E
100
AcDbXrecord
280
     1
 40
0.0
  0
XRECORD
  5
C74
102
{ACAD_REACTORS
330
C4E
102
}
330
C4E
100
AcDbXrecord
280
     1
1000
Portrait
  0
XRECORD
  5
C75
102
{ACAD_REACTORS
330
C4E
102
}
330
C4E
100
AcDbXrecord
280
     1
 40
297.0
  0
XRECORD
  5
C76
102
{ACAD_REACTORS
330
C4E
102
}
330
C4E
100
AcDbXrecord
280
     1
 40
210.0
  0
XRECORD
  5
C77
102
{ACAD_REACTORS
330
C4E
102
}
330
C4E
100
AcDbXrecord
280
     1
1000
1:1
  0
XRECORD
  5
C78
102
{ACAD_REACTORS
330
C4E
102
}
330
C4E
100
AcDbXrecord
280
     1
290
     1
  0
XRECORD
  5
C79
102
{ACAD_REACTORS
330
C4E
102
}
330
C4E
100
AcDbXrecord
280
     1
 90
        4
  0
ENDSEC
  0
EOF
